Basshunter - Camilla tab

E----------------------------------------------|
A----------------------------------------------|
D---2-4-2-4-2-6-7-6-7-6-2-6---6-2-4-1-1-2-4----|
G-4-------------------------2---------------2--|
B----------------------------------------------|
E----------------------------------------------|

E----------------------------------------------|
A-------------------------------------------5--|
D---2-4-2-4-2-6-7-6-7-6-2-6---6-2-4-1-1-2-4----|
G-4-------------------------2------------------|
B----------------------------------------------|
E----------------------------------------------|

E-----------2-5-2-5-2-----------5-4------------|
A-2-----2-5-----------5-2-----------5-5-----5--|
D---2---------------------2---2---------2-4----|
G-----4---------------------2------------------|
B----------------------------------------------|
E----------------------------------------------|

E-----------2-5-2-5-2-----------5-4--------------|
A-2-----2-5-----------5-2-----------5-5----------|
D---2---------------------2---2---------2-4-2----|
G-----4---------------------2-----------------4--|
B------------------------------------------------|
E------------------------------------------------|

It's up to you to figure out the timing, but here's all the notes.
Tap to rate this tab
 
# A B C D E F G H I J K L M N O P Q R S T U V W X Y Z