Song name
# A B C D E F G H I J K L M N O P Q R S T U V W X Y Z

Bassnectar - Falling tab

-------------------------------------------------------------------------------
			     FALLING (feat Paper Machete) - Bassnectar
-------------------------------------------------------------------------------
Tabbed by: Lo Javernick
Email: lojavdu@gmail.com

Tuning: Standard

This is the meat and potatoes to this song, but he makes a few small variations at some 
points. If you play this, it sounds perfectly fine, but if you want to add some flare to 
it then listen to the track for his variations. Great song, hope this helps!

e|---------------------------------------------------------------------------|
B|---------------------------------------------------------------------------|
G|---------------------------------------------------------------------------|
D|--9--7--7--9--9\5--5--4--4--4--5/9--9--7--7--9--9\5--5--4--0--0--2---------|
A|---------------------------------------------------------------------------|
E|77-77-77-77-77---33-33-33-33-33---77-77-77-77-77---33-33-33-33-33----------|

e|---------------------------------------|
B|---------------------------------------|
G|-----2-----2----------4-----4-----  ---|x2
D|--4-----4-----4/5--5-----5-----5\4-----|
A|---------------------------------------|
E|22-22-22-22-22---33-33-33-33-33--------|


| /   slide up
| \   slide down

Link to Bassnectar's Website: http://www.bassnectar.net/
Tap to rate this tab
 
# A B C D E F G H I J K L M N O P Q R S T U V W X Y Z