Song name
# A B C D E F G H I J K L M N O P Q R S T U V W X Y Z

Bathory - Satan My Master tab

-------------------------------------------------------------------------------
			     Satan my Master - Bathory
-------------------------------------------------------------------------------
Tabbed by:Derz
Email:phillip55@web.de

Tuning:EADGBe

Riff1:x3
e|---------------------------------------------------------------------------|
B|---------------------------------------------------------------------------|
G|---------------------------------------------------------------------------|
D|---------------------------------------------------------------------------|
A|-------2-------1-------0-3-44/6--------------------------------------------|
E|-111111--111111--111111--1-22/4--------------------------------------------|

Riff2:x4
e|---------------------------------------------------------------------------|
B|---------------------------------------------------------------------------|
G|---------------------------------------------------------------------------|
D|------------555555555------------------------------------------------------|
A|-4444444444-333333333------------------------------------------------------|
E|-2222222222----------------------------------------------------------------|

Riff1:x2
Riff2:x4

Riff3:x4
e|---------------------------------------------------------------------------|
B|---------------------------------------------------------------------------|
G|---------------------------------------------------------------------------|
D|---------------------------------------------------------------------------|
A|-3333-4444-5555-6666-------------------------------------------------------|
E|-1111-2222-3333-4444-------------------------------------------------------|

Riff4:x4
e|---------------------------------------------------------------------------|
B|---------------------------------------------------------------------------|
G|---------------------------------------------------------------------------|
D|-5-3-5-6-------------------------------------------------------------------|
A|-3-1-3-4-------------------------------------------------------------------|
E|---------------------------------------------------------------------------|

Riff1:x2
Riff2:x4
Riff2:x4

END!
Tap to rate this tab
 
# A B C D E F G H I J K L M N O P Q R S T U V W X Y Z