Guitaretab - guitar tabs
Song name
# A B C D E F G H I J K L M N O P Q R S T U V W X Y Z

Battisti Lucio - Il Mio Canto Libero tab

Il mio canto libero - Lucio Battisti

Chords:
A 577655
C#m 446654
D xx0232
A* x02220
A7 575655
G 355433
F# 244322

INTRO:
  A                      C#m                   D                        A*
||----------------------|---------------------|------------------------|-------------------||
||-----7b-------5-------|----7b--------5------|--7b------5-------------|----7b-------5-----||
||-----------------6----|-----------------6---|-------------6s2--------|----------------6--||
||----------------------|---------------------|-------------------2s9--|-------------------||
||----------------------|---------------------|------------------------|-------------------||
||----------------------|---------------------|------------------------|-------------------|| 

VERSE 1

In un mondo [A] che non ci vuole [C#m]piu`
il mio canto [D]libero sei [A*]tu
e l'immensita`[A] si apre intorno a [C#m]noi
aldila` del [D]limite degli occhi [A*]tuoi
[A]nasce il sentimento, [C#m]nasce in mezzo al pianto
e s'innalza al[D]tissimo e [A*]va
e [A]vola sulle accuse della gente
a [C#m]tutti i suoi retaggi indifferente
sorretto da un [D]anelito d'amor
di [A*]vero amore

(SAME CHORDS VERSE 1)
[ Tab from: http://www.guitaretab.com/b/battisti-lucio/937.html ]
In un mondo che prigioniero e`
respiriamo liberi io e te
e la verita` si offre nuda a noi
e limpida e` l'immagine ormai
nuove sensazioni, giovani emozioni
si esprimono purissime in noi
la veste dei fantasmi del passato
cadendo lascia il quadro immacolato
e s'alza un vento tiepido d'amore
di vero amore

[D]e riscopro [A*]te[D][A*]
dolce [C#m]compagna che
[D] non sai dove andare
ma sai che [A*]ovunque andrai
[G] al fianco tuo mi [A*]avrai
[F#]se tu lo vuoi[A7][A][C#m][D][A*][A][C#m][D][A*] 


[A]pietre un giorno case
ricoperte[C#m] dalle rose selvatiche
rivivono[D], ci [A*]chiamano
[A]boschi abbandonati
e percio`[C#m] sopravvissuti vergini
si [D]aprono, ci [A*]abbracciano          G                      F#
                                         |----------------------|---------------------|
                                         |------3-3h5-----------|-----4h7-------------|
                                         |--------------4-------|-----------3---------|
                                         |----------------------|---------------------|
                                         |----------------------|---------------------|
                                         |----------------------|---------------------| 
(SAME CHORDS VERSE 1)
 
In un mondo che prigioniero e`
respiriamo liberi io e te
e la verita` si offre nuda a noi
e limpida e` l'immagine ormai
nuove sensazioni, giovani emozioni
si esprimono purissime in noi
la veste dei fantasmi del passato
cadendo lascia il quadro immacolato
e s'alza un vento tiepido d'amore
di vero amore[D]e riscopro [A]te[D][A][D][A]
Related for Il Mio Canto Libero tab