Song name
# A B C D E F G H I J K L M N O P Q R S T U V W X Y Z

Bayside - I And I tab

Tabbed by:
Email:

Tuning: Standard

Great song but this is my first time ever tabbing anything online so if it sucks I 
I know it’s missing a lot. Email it to me if you want. Enjoy it. Rock on Bayside.

Intro: X2

e|-----------------------------------------------------------------------------|
B|-----------------------------------------------------------------------------|
G|-----------------------------------------------------------------------------|
D|--XX55555599\10\9--8888-7-7-7-7----------------------------------------------|
A|--XX55555577\8-\7--6666—5-5-5-5----------------------------------------------|
E|--XX333333-------------------------------------------------------------------|

Verse X4
e|---------------------------------------------------------------------------|
B|---------------------------------------------------------------------------|
G|-----------55555-888-101010---------5555-888-777---------------------------|
D|--55555555555555-888-8-8-8--555555555555-888-777---------------------------|
A|--55555555533333-666-8-8-8--555555553333-666-555---------------------------|
E|--333333333-----------------33333333---------------------------------------|

Bridge X1
e|---------------------------------------------------------------------------|
B|---------------------------------------------------------------------------|
G|--88888--------------------------------------------------------------------|
D|--88888--88888---101010--5555--3333----------------------------------------|
A|--66666--88888---101010--5555--3333----------------------------------------|
E|---------66666---8-8-8---3333—-1111----------------------------------------|

Chorus Type 1 X2
e|---------------------------------------------------------------------------|
B|---------------------------------------------------------------------------|
G|--3333-33-----4455555---------3333-33-----4455555-888----------------------|
D|--3333-33555554455555-333—----3333-33555554455555-888----------------------|
A|--1111-00555552233333-333-----1111-00555552233333-666----------------------|
E|---------33333--------111------------33333---------------------------------|

Intro X2

Verse X2

Chorus Type 1 X2

Chorus Type 2 X4
e|---------------------------------------------------------------------------|
B|---------------------------------------------------------------------------|
G|--333-3-------------8888---------------------------------------------------|
D|--333-3-333\4\5555--8888---------------------------------------------------|
A|--111h3-333\4\5555--6666---------------------------------------------------|
E|--------111\2\3333---------------------------------------------------------|

Chorus Type 1 X2


| /  slide up
| \  slide down
| h  hammer-on
| p  pull-off
| ~  vibrato
| +  harmonic
| x  Mute note
Tap to rate this tab
# A B C D E F G H I J K L M N O P Q R S T U V W X Y Z