Song name
# A B C D E F G H I J K L M N O P Q R S T U V W X Y Z

Bayside - Howard tab

Help us improve GuitareTab! Take a short survey!
Artist: Bayside
Song: Howard
Album: Shudder
Tuning: Whole Step Down (DGCFAD)

Guitar 1: Anthony Raneri

Intro:
e |----------------------|x1
B |----------------------|
G |--999-888-666-444444--|
D |--999-888-666-444444--|
A |--777-666-444-222222--|
E |----------------------|

Verse: Palm Mute all
e |--------------------------------|x2
B |--------------------------------|
G |-4x8-----9x8-7x8-11x8-9x8-7x16--|
D |-4---5x8-9---7---11---9---7-----|
A |-2---5---7---5---9----7---5-----|
E |-----3--------------------------|
  Mr. Hughs, how are you?....

Pre Chorus:
e |----------------------------------------------|x1
B |----------------------------------------------|
G |--444444-777777-444444------------------------|
D |--444444-777777-444444-555555-444444-555-777--|
A |--222222-555555-222222-555555-444444-555-777--|
E |-----------------------333333-222222-333-555--|
  Howard you're a ten but.....


Chorus:                                       __     
e |---------------------------------------|     \
B |---------------------------------------|      \
G |--77777777----------77777777-----------|       \ 
D |--77777777-44442222-77777777-44447777--|        \
A |--55555555-44442222-55555555-44447777--|        | 
E |-----------22220000----------22225555--|        |
  What ever happened to Howard Hughs?....          |
                                                   | x2
e |----------------------------|                   |
B |----------------------------|                   |  
G |--4444-7777-------------7x--|                  / 
D |--4444-7777-4x-5x-7x-5x-7x--|                 /
A |--2222-5555-4x-5x-7x-5x-5x--|                /
E |------------2x-3x-5x-3x-----|            ___/
  You gave it all you've got....

Post Chorus Riff thing:
e |-------------------------------------------------------|
B |--------------------10*--------------------------------|
G |--/7-9-/11-9-/12-11----12-11-----14-12h14p12-----------|
D |----------------------------14-12-----------12h14p112--|
A |-------------------------------------------------------|
E |-------------------------------------------------------|

e |--------------------------------------|
B |--14-12-11----------------------------|
G |-----------14-12----------------------|
D |-----------------14-4444444444444444--|
A |--------------------2222222222222222--|
E |--------------------------------------|
                       ****************

Verse: x2
Pre Chorus
Chorus

Bridge:
e |-------------------|x4
B |-------------------|
G |--777-666-444-222--|
D |--777-666-444-222--|
A |--555-444-222-111--|
E |-------------------|
  Howard, my dear....

e |----------------------------------------------------------|
B |----------------------------------------------------------|
G |----------------------------------------------------------|
D |--77777777-1212121212121212-77777777-1212121212121212-4~--|
A |--55555555-1010101010101010-55555555-1010101010101010-4~--|
E |------------------------------------------------------2~--|
     ******** **************** ******** ****************
  Howard you're a ten but.....

Chorus.

Jacks parts aren't ready at this point.
 

Related for Howard tab