Song name
# A B C D E F G H I J K L M N O P Q R S T U V W X Y Z

Bayside - I Will Follow You Into The Dark tab

Chords used:
  EMaj  C#m  AMaj  BMaj  Am  G#Maj
E|0------0----0-----0-----0----4-|
A|2------4----0-----2-----0----6-|
D|2------6----2-----4-----2----6-|
G|1------6----2-----x-----2----5-|
B|0------5----2-----4-----1----x-|
e|0------0----0-----0-----0----x-|


Intro:
E|-----------------------5-------5--5----5/9----7--7-------------------------|
A|4----------7--------7----------7--7-----------------4----------7--------7--|
D|--------6----------------7-----7--7-------------------------6--------------|
G|--6---6------6---6----------6--6--6--------9----------6---6------6---6-----|
B|----5----------5----------------------------------------5----------5-------|
e|---------------------------------------------------------------------------|

E|4--------4-4--4-4--4-4-------------------------4------4-4--4/9----7--7-|
A|---------6-6--6-6--6-6----4----------7------7---------6-6--------------|
D|--6------6-6--6-6--6-6------------6--------------6----6-6--------------|
G|-----5---5-5--5-5--5-5------6---6-----6---6--------5--5-5------9-------|
B|------------------------------5---------5------------------------------|
e|-----------------------------------------------------------------------|

E|----0-0---0-0-0---0---0-0---0-0-0---0-|
A|0---0-0---0-0-0---0---0-0---0-0-0---2-|
D|----2-2---2-2-2---1---1-1---1-1-1---2-|
G|----2-2---2-2-2---2---2-2---2-2-2---1-|
B|----2-2---2-2-2---2---2-2---2-2-2---0-|
e|----0-0---0-0-0---0---0-0---0-0-0---0-|



EMaj                  C#m
Love of mine, someday you will die

         AMaj                    EMaj          BMaj
I'll be close behind, I'll follow you into the dark

EMaj                              C#m
No blinding light, or tunnels to gates of white

               AMaj                      EMaj              BMaj
Just our hands clasped so tight, waiting for the hint of a spark


C#m                EMaj             AMaj              EMaj BMaj
If heaven and hell decide that they both are satisfied

C#m            EMaj           BMaj
Illuminate the No's on their vacancy signs

C#m                       EMaj          G#Maj       C#m BMaj
If there's no onne beside you when your soul embarks

AMaj             Am           EMaj
Then I'll follow you into the dark


E|-----------------------5-------5--5----5/9----7--7------------------------|
A|4----------7--------7----------7--7-----------------4----------7--------7-|
D|--------6----------------7-----7--7-------------------------6-------------|
G|--6---6------6---6----------6--6--6--------9----------6---6------6---6----|
B|----5----------5----------------------------------------5----------5------|
e|--------------------------------------------------------------------------|

E|4--------4-|
A|---------6-|
D|--6------6-|
G|-----5---5-|
B|-----------|
e|-----------|

EMaj                              C#m
In Catholic school, a viscious as roman rule

          AMaj                  EMaj   BMaj
I got my knuckles bruised, by a lady in black

       EMaj                  C#m
And I held my tounge, as she told me son

            AMaj                EMaj       BMaj
Fear is the heart of love, so I never went back



C#m                EMaj             AMaj              EMaj BMaj
If heaven and hell decide that they both are satisfied

C#m            EMaj           BMaj
Illuminate the No's on their vacancy signs

C#m                       EMaj          G#Maj       C#m BMaj
If there's no onne beside you when your soul embarks

AMaj             Am           EMaj
Then I'll follow you into the dark




Pretty much the same break here as the last time.


EMaj                         C#m
You and me, have seen everything to see

                AMaj            EMaj         BMaj
From Bankok to Calgary, and the soles of our shoes

    EMaj                         C#m
Are all worn down, the time for sleep is now

                AMaj                   EMaj            BMaj
It's nothing to cry about, cause we'll hold each other soon

       C#m          Am
In the blackest of rooms.



C#m                EMaj             AMaj              EMaj BMaj
If heaven and hell decide that they both are satisfied

C#m            EMaj           BMaj
Illuminate the No's on their vacancy signs

C#m                       EMaj          G#Maj       C#m BMaj
If there's no onne beside you when your soul embarks

AMaj             Am           C#m
Then I'll follow you into the dark


AMaj             Am           EMaj
Then I'll follow you into the dark
Tap to rate this tab
# A B C D E F G H I J K L M N O P Q R S T U V W X Y Z