Guitaretab - guitar tabs
Song name
# A B C D E F G H I J K L M N O P Q R S T U V W X Y Z

Bayside - Montauk tab

-------------------------------------------------------------------------------
                              Montauk - Bayside
-------------------------------------------------------------------------------
Tabbed By: Garrett
E-Mail: NNoodleNose@Gmail.com

Tuning: Drop D

[intro]
(guitar 1)
e|------------------------------------------------------------|
b|-X-X-3-3-X-3-3-X-X-3-3-3----------------------------------3-|
g|-X-X-4-4-X-4-4-X-X-4-4-4-7--7-7--7-7--11--11--11-11-11-11-4-|
d|-X-X-4-4-X-4-4-X-X-4-4-4-7--7-7--7-7--11--11--11-11-11-11-4-|
a|-X-X-2-2-X-2-2-X-X-2-2-2-5--5-5--5-5---9---9---9--9--9--9-2-|
D|------------------------------------------------------------| [x4]
(guitar 2)
{comes in third cycle}
e|---------------------------------------------------------------|
b|---------------------------------------------------------------|
g|-/6-----6-5-8-6-5-6-5-8-6-5-6-5----6-5-6-5-8-6-5-6-5-6-5-6-5---|
d|-----------8---------8---------8----------8---------8-------8--|
a|---------------------------------------------------------------|
D|---------------------------------------------------------------|

e|------------------------------------------------------------|
b|------------------------------------------------------------|
g|-6-5-8-6-5-6-5-8-6-5-6-5----6-5-6-5-8-6-5-6-5-6-5-6-5-------|
d|----8---------8---------8----------8---------8-------8-6-4--|
a|------------------------------------------------------------|
D|------------------------------------------------------------|

[verse]

e|-------------------------------------------------------------------------|
b|-------------------------------------------------------------------------|
g|-7-7-7-7-7-7-7-7-7-7-7-7-X-9--9-9-9-X-X-9-X-8-X-11--11-11-11-11-11-11-11-|
d|-5-5-5-5-5-5-5-5-7-7-7-7-X-7--7-7-7-X-X-7-X-7-X--9---9--9--9--9--9--9--9-|
a|-5-5-5-5-5-5-5-5-5-5-5-5-X-7--7-7-7-X-X-7-X-7-X--9---9--9--9--9--9--9--9-|
D|-5-5-5-5-5-5-5-5---------X-7--7-7-7-X-X-7-X-7-X--9---9--9--9--9--9--9--9-|

e|-----------------------------|
b|-----------------------------|
g|-X-4-X---X-6--6-6-6-6-6-6-6--|
d|-X-2-X-0-X-4--4-4-4-4-4-4-4--|
a|-X-2-X-0-X-4--4-4-4-4-4-4-4--|
D|-X-2-X-0-X-4--4-4-4-4-4-4-4--| [x2]

[transition]

e|-------------------------------|
b|-------------------------------|
g|-7-7-7-7-7-7-7-7-7--7--7--7--7-|
d|-7-7-7-7-7-7-7-7-7--7--7--7--7-|
a|-5-5-5-5-5-5-5-5-5--5--5--5--5-|
D|-------------------------------|

[Chorus]

e|---------------------------------------------------------------------|
b|-3-3-3--3-3-3--3-3-3--3-3-3------------------------------------------|
g|-4-4-4--4-4-4--4-4-4--4-4-4----------------------------9-9-9--9-9-9--|
d|-4-4-4--4-4-4--4-4-4--4-4-4-2-2-2--2-2-2--2-2-2--2-2-2-7-7-7--7-7-7--|
a|-2-2-2--2-2-2--2-2-2--2-2-2-2-2-2--2-2-2--2-2-2--2-2-2-7-7-7--7-7-7--|
D|----------------------------2-2-2--2-2-2--2-2-2--2-2-2-7-7-7--7-7-7--|

e|----------------------------|
b|----------------------------|
g|-9-9-9--9-9-9-7-6-7-9-7-6-4-|
d|-7-7-7--7-7-7-X-X-X-X-X-X-X-|
a|-7-7-7--7-7-7-5-4-5-7-5-4-2-|
D|-7-7-7--7-7-7---------------| [x2]

[Verse]
e|-------------------------------------------------------------------------|
b|-------------------------------------------------------------------------|
g|-7-7-7-7-7-7-7-7-7-7-7-7-X-9--9-9-9-X-X-9-X-8-X-11--11-11-11-11-11-11-11-|
d|-5-5-5-5-5-5-5-5-7-7-7-7-X-7--7-7-7-X-X-7-X-7-X--9---9--9--9--9--9--9--9-|
a|-5-5-5-5-5-5-5-5-5-5-5-5-X-7--7-7-7-X-X-7-X-7-X--9---9--9--9--9--9--9--9-|
D|-5-5-5-5-5-5-5-5---------X-7--7-7-7-X-X-7-X-7-X--9---9--9--9--9--9--9--9-|

e|-----------------------------|
b|-----------------------------|
g|-X-4-X---X-6--6-6-6-6-6-6-6--|
d|-X-2-X-0-X-4--4-4-4-4-4-4-4--|
a|-X-2-X-0-X-4--4-4-4-4-4-4-4--|
D|-X-2-X-0-X-4--4-4-4-4-4-4-4--| [x2]
[Chorus]
e|---------------------------------------------------------------------|
b|-3-3-3--3-3-3--3-3-3--3-3-3------------------------------------------|
g|-4-4-4--4-4-4--4-4-4--4-4-4----------------------------9-9-9--9-9-9--|
d|-4-4-4--4-4-4--4-4-4--4-4-4-2-2-2--2-2-2--2-2-2--2-2-2-7-7-7--7-7-7--|
a|-2-2-2--2-2-2--2-2-2--2-2-2-2-2-2--2-2-2--2-2-2--2-2-2-7-7-7--7-7-7--|
D|----------------------------2-2-2--2-2-2--2-2-2--2-2-2-7-7-7--7-7-7--|

e|--------------------|
b|--------------------|
g|-9-9-9--9-9-9-7-6-3-|
d|-7-7-7--7-7-7-X-X-X-|
a|-7-7-7--7-7-7-5-4-1-|
D|-7-7-7--7-7-7-------|

[Interlude]
(guitar 1)
e|-------------------------------------------------------|
b|-14----14----14----14----14-12----12----12----12----12-|
g|---13----13----13----13-------13----13----13----13-----|
d|-----11----11----11----11-------14----14----14----14---|
a|-------------------------------------------------------|
D|-------------------------------------------------------|

e|-------------------------------------------------|
b|-10----10----10----10----10-9----9----9----9-----|
g|---11----11----11----11------11---11---11---11---|
d|-----12----12----12----12------10---10---10---10-|
a|-------------------------------------------------|
D|-------------------------------------------------| [x2]

(guitar 2)
{on second cycle come in with this}
[ Tab from: http://www.guitaretab.com/b/bayside/78588.html ]
   PM........................
e|---------------------------------5---------5----------|
b|----------------------------7-5---7-5-7-5---7-5-7-5---|
g|--5-5-7-5--4----------5-7-5----7---------7---------7--|
d|-7-7---------7-5-4-5-7--------------------------------|
a|------------------------------------------------------|
D|------------------------------------------------------|

   PM...    . . .   .   . .  .. ............
e|------------------------------------------------------|
b|-------5-3-3---5-3--3-------2-1-1-2-4-2-1-1h2p1---2h4-|
g|-7-5-3----5-5-3---5---5-3------2---------2-----3p2----|
d|--------------------------/5--------------------------|
a|------------------------------------------------------|
D|------------------------------------------------------|

[Solo]
(guitar 2)
        tremolo pick here .                     pinch harmonic .     
e|------------10--10-12-12b---10-12-12b-10----------------------------------|
b|----7/12--12--12------------------------12-12-----------------------------|
g|---7------------------------------------------9b-7-------7-9-9b-7---------|
d|-/9------------------------------------------------9-7-9----------9-7-9-7-|
a|--------------------------------------------------------------------------|
D|--------------------------------------------------------------------------|
 Now the fast part
e|----------------------------------------------------|
b|-----------------------12--14--15--14--12--10--10---|
g|-------------11--/11-11--11--11--11--11--11--11--11-|
d|-----11---11----------------------------------------|
a|-7-9----9-------------------------------------------|
D|----------------------------------------------------|

e|------------------------------------------------------------------------|
b|-------15--17--19--17--15--12--12---12-14-15-14-15-17b-17-15-14-12------|
g|-/14-14--14--14--14--14--14--14--14-------------------------------15-11-|
d|------------------------------------------------------------------------|
a|------------------------------------------------------------------------|
D|------------------------------------------------------------------------|

e|----14---14---14---14--------|
b|-17b--17b--17b--17b--17b-17b-|
g|-----------------------------|
d|-----------------------------|
a|-----------------------------|
D|-----------------------------|

(guitar one){back-up for solo}
e|----------------------------------------------------------------------|
b|-14-14-14--14-14-14--14-14-14--14-14-14--12-12-12--12-12-12--12-12-12-|
g|-13-13-13--13-13-13--13-13-13--13-13-13--13-13-13--13-13-13--13-13-13-|
d|-11-11-11--11-11-11--11-11-11--11-11-11--14-14-14--14-14-14--14-14-14-|
a|----------------------------------------------------------------------|
D|----------------------------------------------------------------------|

e|----------------------------------------------------------------------|
b|-12-12-12--10-10-10--10-10-10--10-10-10--10-10-10---9--9--9---9--9--9-|
g|-13-13-13--11-11-11--11-11-11--11-11-11--11-11-11--11-11-11--11-11-11-|
d|-14-14-14--12-12-12--12-12-12--12-12-12--12-12-12--10-10-10--10-10-10-|
a|----------------------------------------------------------------------|
D|----------------------------------------------------------------------|

e|---------------------|      e|---------------|
b|--9--9--9---9--9--9--|      b|---------------|
g|-11-11-11--11-11-11--|      g|---------------|
d|-10-10-10--10-10-10--|      d|-2--2--2--2--2-|
a|---------------------|      a|-2--2--2--2--2-|
D|---------------------| [x2] D|-2--2--2--2--2-|

[Transition]

e|------------------------------------------------------------------------------|
b|------------------------------------------------------------------------------|
g|-4-4-4/6/7\6\4------7---7-6-7-9-7-6-4--4------7---7-6-3--3-3--3-3--3-3--3-3-3-|
d|-4-4-X/X/X\X\x--2---9---X-X-X-X-X-X-X--4--2---9---X-X-X--3-3--3-3--3-3--3-3-3-|
a|-2-2-2/4/5\4\2--2---9---5-4-5-7-5-4-2--2--2---9---5-4-1--1-1--1-1--1-1--1-1-1-|
D|----------------2---9---------------------2---9-------------------------------|

[last Chorus]

e|---------------------------------------------------------------------|
b|-3-3-3--3-3-3--3-3-3--3-3-3------------------------------------------|
g|-4-4-4--4-4-4--4-4-4--4-4-4----------------------------9-9-9--9-9-9--|
d|-4-4-4--4-4-4--4-4-4--4-4-4-2-2-2--2-2-2--2-2-2--2-2-2-7-7-7--7-7-7--|
a|-2-2-2--2-2-2--2-2-2--2-2-2-2-2-2--2-2-2--2-2-2--2-2-2-7-7-7--7-7-7--|
D|----------------------------2-2-2--2-2-2--2-2-2--2-2-2-7-7-7--7-7-7--|

e|----------------------------|
b|----------------------------|
g|-9-9-9--9-9-9-7-6-7-9-7-6-4-|
d|-7-7-7--7-7-7-X-X-X-X-X-X-X-|
a|-7-7-7--7-7-7-5-4-5-7-5-4-2-|
D|-7-7-7--7-7-7---------------|

e|---------------------------------------------------------------------|
b|-3-3-3--3-3-3--3-3-3--3-3-3------------------------------------------|
g|-4-4-4--4-4-4--4-4-4--4-4-4----------------------------9-9-9--9-9-9--|
d|-4-4-4--4-4-4--4-4-4--4-4-4-2-2-2--2-2-2--2-2-2--2-2-2-7-7-7--7-7-7--|
a|-2-2-2--2-2-2--2-2-2--2-2-2-2-2-2--2-2-2--2-2-2--2-2-2-7-7-7--7-7-7--|
D|----------------------------2-2-2--2-2-2--2-2-2--2-2-2-7-7-7--7-7-7--|
                               .slide up the neck.
e|--------------------------------|
b|--------------------------------|
g|-9-9-9--9-9-9--7-6-4-3----4--4\-|
d|-7-7-7--7-7-7--X-X-X-X----4--4\-|
a|-7-7-7--7-7-7--5-4-2-1----2--2\-|
D|-7-7-7--7-7-7-------------------|

took me awhile to get that, so if any comments/questions please e-mail.
Thank you and enjoi.
Related for Montauk tab
Advertisement will be closed in 10 seconds