Song name
# A B C D E F G H I J K L M N O P Q R S T U V W X Y Z

Bayside - Sick Sick Sick tab

'Sick Sick Sick' by Bayside
Tabbed by LesThanPaul
Standard Tuning

Intro
Lead
e|----------------------------------9------9-------10-9---------------------|
B|-2/10-9-7-----2/10-9-7-9-10-12----12b14--12b14--------12-10-9-7--7~-------|
G|--------------------------------------------------------------------------|
D|--------------------------------------------------------------------------|
A|--------------------------------------------------------------------------|
E|--------------------------------------------------------------------------|
Rhythm
e|-------------------|
B|-------------------|
G|-------7-----------|
D|-4-----7-x5--7-----|  (6 times)
A|-4-x3--5-----7-x8--|
E|-2-----------5-----|

Verse (straight 8th notes; mute mute accent mute pattern)
e|-----------------------------------------|
B|-----------------------------------------|  
G|------7777-2222-6666------7777-6666-6666-|  (4 times)
D|-4444-7777-2222-6666-4444-7777-6666-6666-|
A|-4444-5555-0000-4444-4444-5555-4444-4444-|
E|-2222----------------2222----------------|

Prechorus
Lead (all muted)
e|-----------------------------------|
B|-----------------------------------|
G|-2-----2-----2----1-----1-----1----|
D|---4-----4-----4----3-----3-----3--| (2 times)
A|-----4-----4----------4-----4------|
E|-----------------------------------|
Rhythm (all muted, but gradually lift off on the last chord second time)
e|------------------------|
B|------------------------|
G|------------------6-----|
D|-4----------------6-x8--|  (2 times)
A|-4-x8-------------4-----|
E|-2----------------------|

Chorus
e|--------------------------------------------------------------------------|
B|--------------------------------------------------------------------------|
G|--------7-------------6-------------7-----9-----------------6-------------|
D|-4------7-x16--7------6-x16--4------7-x8--9-x8--7-----4-----6-x8----------|
A|-4-x16--5------7-x16--4------4-x16--5-----7-----7-x8--4-x8--4-------------|
E|-2-------------5-------------2------------------5-----2-------------------|

Post Chorus
Lead
e|--------------------------------|
B|--------------------------------|
G|--------------------------------|
D|--------------------------------|
A|-4/12-11-9--4/12-11-9-11-12-11~-|
E|--------------------------------|
Rhythm
e|-------------------------|
B|-------------------------|
G|-------7-----------6-----|  (2 times)
D|-4-----7-x4--7-----6-x4--|
A|-4-x4--5-----7-x4--4-----|
E|-2-----------5-----------|

Repeat the Verse, Prechorus, and Chorus again


Solo (Not Perfect, but sounds close)
e|-----------------------------------------------------------------|
B|-----------------------------------------------------------------|
G|-----------2----------------2----------------2-------------------|
D|-2---2-4-2---6-4--2---2-4-2---6-4--2---2-4-2---6-4--2------------|
A|---5----------------5----------------5----------------5-4-2------|
E|------------------------------------------------------------5-4~-|

e|------------------------------------------------------------------------------|
B|------------------------------------------------------------------------------|
G|-----------2----------------2----------6-4-2---7-6-4---9-7-6---11-9-11-13-14~-|
D|-2---2-4-2---6-4--2---2-4-2---6-4--2---------6-------7-------9----------------|
A|---5----------------5----------------5----------------------------------------|
E|------------------------------------------------------------------------------|

Bridge (timing is tricky so I'm going to just put the powerchord names over the lyrics)

D                         E   F#
Maybe love is looking for someone to fill up holes
           D                               E   F#      E(pickup right before 'the')
We grow up building lies with holes in all our walls
    D                                   E       F#
The walls can fall but here you were with spare bricks to save the day
       D
And we pray it's not too late
      C#
Spare bricks can be dead weight



Play PreChorus twice (hold C# at the end)

Chorus

Repeat intro

End on F#


That's it! Please rate and comment, it is much appreciated.
Tap to rate this tab
# A B C D E F G H I J K L M N O P Q R S T U V W X Y Z