Song name
# A B C D E F G H I J K L M N O P Q R S T U V W X Y Z

Bayside - Beautiful Girls tab

Help us improve GuitareTab! Take a short survey!
Anthony Raneri:
D---------------------------------------------|
A---------------------------------------------|
F---------------6-----------------------------|
C-9-----6-------6------4------9---------------|
G-9-----6-------4------4------9---------------|
D-7-----4--------------2------7---------------|
(these chords /\/\ are used for pretty much the whole song)


Jack O'Shea (intro)
D--------------------------------------------------------------------------|
A--------------------------------------------------------------------------|
F-----------------13-------------------------------------------------------|
C---/13-11-9--/16----/13-9-----------9-11-/13-11h13p11-9-/13-11-11-9-------|
G--------------------------11p9-11p9---------------------------------------|
D--------------------------------------------------------------------------|

D-------------------------------------|
A-------------------------------------|
F-------------------------------------|
C---/13-11-11-9---9-/11-/13-14b-------|
G-------------------------------------|
D-------------------------------------|
Related for Beautiful Girls tab