Song name
# A B C D E F G H I J K L M N O P Q R S T U V W X Y Z

Bb King - Lucille tab

Help us improve GuitareTab! Take a short survey!
Here's the intro to one of the best songs by BB King. 
My thanks go to BB John.

Standard tuning

e---------11-13b15------|-----------------------------------------------------|
B---11-13-----------11~-|-14b16-----------------------------------------------|
G-----------------------|--------13b15--13-11-13--13b15r13-11b13r11-----11b12-|
D-----------------------|--------------------------------------------13-------|
A-----------------------|-----------------------------------------------------|
E-----------------------|-----------------------------------------------------|


---11-----------------------------------|--------------------------------|
-11--11v---13b14--11h13-11---11---------|--------------------------------|
---------------------------13----11-12v-|-15b17-13b15--------------------|
----------------------------------------|--------------16b17-13-13v------|
----------------------------------------|---------------------------15---|
----------------------------------------|--------------------------------|


---------------------------------------------------------|
-------------14-11---------------------------------------|
----11-13-11-------13b15-13-11----11b13r11---------11b12-|
-13----------------------------13----------13-13v--------|
---------------------------------------------------------|
---------------------------------------------------------|


--------------------------11----11-------14s15------|
-14-11----11-----------11----11-----16v----------16-|
-------13----11b12r11-------------------------------|
----------------------------------------------------|
----------------------------------------------------|
----------------------------------------------------|


-16s15---------(14)-----10s11---------------------------|
-------16-16v------(14)-------14----11------------------|
---------------------------------13----11-13v-11--------|
-------------------------------------------------13-13v-|
--------------------------------------------------------|
--------------------------------------------------------|
Related for Lucille tab