Song name
# A B C D E F G H I J K L M N O P Q R S T U V W X Y Z

Bb King - Blues Boy Tune tab

This song is easy & played
but do not know if it is understood by Beginners oh no!!:o
but listen to the song to get the feeling & sound down =}

|-----------------------------------------------|
|-----------------------------------------------|
|----------16--19--16------16-------------------|
|---16--18--------------------------------------|
|-----------------------------------------------|
|-----------------------------------------------|


|-----------------------------------------------|
|-----------------------------------------------|
|---16---19^---16---19/21-19----------21-19-----|
|---16---19------------------21-19-21-----------|
|-----------------------------------------------|
|-----------------------------------------------|


|------------------------------------------------|
|---17H19(^3x)---17---------------------------/21|
|-------------------19/21--19-------- 21-19---/19|
|-----------------------------21-19-21-----------|
|------------------------------------------------|
|------------------------------------------------|

|------------------------------------------------|
|--17--19^--17-----------------------------------|
|--------------19/21-19--------------------------|
|-----------------------21-19-21-----------------|
|------------------------------------------------|
|------------------------------------------------|

|------------------------------------------------|
|-----------21(2x)--/21--------------------------|
|--19-21-19---------/19--------------------------|
|--19-21-----------------------------------------|
|------------------------------------------------|
|------------------------------------------------|

|------------------------------------------------|
|--17H19-----------------------------------------|
|--------15--------------------------------------|
|------------------------------------------------|
|------------------------------------------------|
|------------------------------------------------|
Tap to rate this tab
 
# A B C D E F G H I J K L M N O P Q R S T U V W X Y Z