Song name
# A B C D E F G H I J K L M N O P Q R S T U V W X Y Z

Bb King - Every Day I Have The Blues tab

This is a really cool blues song played at about 165 BPM.  I only have the
intro right now, i'll get the rest later

----------------------------------------------------------------------------
	            Every Day (I have the Blues)- B.B. King
----------------------------------------------------------------------------
Tabbed by: Zach
Email: samuraizach007@netscape.net

Tuning: Standard

e|------------------9---------------------9h11---11----11-------------10---|
B|-------11---11----------------------11-----------------------------------|
G|--10---10----------------------------------------------------------------|
D|-------------------------------------------------------------------------|
A|-------------------------------------------------------------------------|
E|-------------------------------------------------------------------------|

e|---------9---------------------------------------------------------------|
B|--11---------------------11---------------------9h11---13----11----------|
G|---------------------10------10-----------------10/---------------12\h10-|
D|-------------------------------------------------------------------------|
A|-------------------------------------------------------------------------|
E|-------------------------------------------------------------------------|

e|---------------------6--------9h10------------11-------11h9--------------|
B|-----------------6------/11-------------------------------------11-------|
G|----------3h/7-----------------------------------------------------------|
D|-------------------------------------------------------------------------|
A|-------------------------------------------------------------------------|
E|-------------------------------------------------------------------------|

e|---11-----11h9-----------------------------------------------------------|
B|--------------------11/--------------------------------------------------|
G|-------------------------------------------------------------------------|
D|-------------------------------------------------------------------------|
A|-------------------------------------------------------------------------|
E|-------------------------------------------------------------------------|



| /  slide up
| \  slide down
| h  hammer-on
| p  pull-off
| ~  vibrato
| +  harmonic
| x  Mute note
Tap to rate this tab
 
# A B C D E F G H I J K L M N O P Q R S T U V W X Y Z