Song name
# A B C D E F G H I J K L M N O P Q R S T U V W X Y Z

Beach Fossils - Time tab

Beach Fossils - Time
From the Woodsist 7" (2009/2010).

Tabbed by Isaac Murguia, May 15, 2013.
YouTube: Goadiroth

INTRO/VERSE:
  Guitar 1
e|-------------------------------------------|
B|-------------------------------------------|
G|-11-11--11-11-11-9-999-99-6-6-666-7-777-77-|
D|-------------------------------------------|
A|-------------------------------------------|
E|-------------------------------------------|
  Guitar 2
e|---------------------------------------------------|
B|---------------------------------------------------|
G|---------------------------------------------------|
D|---7----7---2-----2---2----------------------------|
A|-0----0---0---0-0---0---0----4---4---5-----5---5---|
E|---------------------------3---3---3---3-3---3---3-|

CHORUS:
(here are the chords, listen to song for strumming/timing)
e|-7------5------5------3------|
B|-7------5------5------3------|
G|-8------6------6------4------|
D|-9------7------7------5------|
A|-9------7------7------5------|
E|-7------5------5------3------|

Repeat from beginning

ENDING CHORD:
e|---5-------|
B|---5-------|
G|---6-------|
D|---7-------|
A|---7-------|
E|---5-------|
Tap to rate this tab
 
# A B C D E F G H I J K L M N O P Q R S T U V W X Y Z