Song name
# A B C D E F G H I J K L M N O P Q R S T U V W X Y Z

Bear Mccreary - Wander My Friends tab

e------------------------------------|
h--------58---5----------------------|
g------4--------7-7---7----4-77------|   first part.
d-5--7-----------------5-7-----7-5-7-|
a------------------------------------|
E------------------------------------|


e--------------5-7-5-57-5------------------|
h---------58--8-----8----8--5--------------|
g-------4-----------------7---7--7-4-------|       second part.
d-5--7------------------------------77-55--|
a------------------------------------------|
E------------------------------------------|
Tap to rate this tab
# A B C D E F G H I J K L M N O P Q R S T U V W X Y Z