Song name
# A B C D E F G H I J K L M N O P Q R S T U V W X Y Z

Beastie Boys - In 3s tab

Beastie Boys.  In 3's.
 Tabbed by andy    ldsurfer@hotmail.com.
  
In 3's from the sounds of way out
intro- w/ wah
8 x 8-x-8----------------------
8 x 8-x-8--------------------
8 x 8-x-8---------------------
----------------------------
----------------------------
----------------------------
breakdown-
4.--10-9-8-7--
5------------12-11-10-9-8

riff 1
2.
3.-----8-10--------8-10
4.-8-10-----8-10--------8-10

there ya go 
:: Ultimate Guitar Archive :: 
http://www.ultimate-guitar.com 



Tap to rate this tab
# A B C D E F G H I J K L M N O P Q R S T U V W X Y Z