Song name
# A B C D E F G H I J K L M N O P Q R S T U V W X Y Z

Beastie Boys - Believe Me tab

-------------------------------------------------------------------------------
			     Believe Me - Beastie Boys
-------------------------------------------------------------------------------
Tabbed by: snow motion
Email:paulpryan@hotmail.com

Tuning: Standard

Corrections welcome.

Verse:
e|---------------------------------|
B|---------------------------------|
G|---------------------------------|
D|-7-7-7-7-8-8-8-8-8-8-8-8-8-8-8-8-|(x4)
A|-7-7-7-7-8-8-8-8-6-6-6-6-6-6-6-6-|
E|-5-5-5-5-6-6-6-6-4-4-4-4-4-4-4-4-|

Prechorus:
e|------------------------------------------------------------------------|
B|------------------------------------------------------------------------|
G|------------------------------------------------------------------------|
D|-7-7-5-5-5-5------2-2-2-2-2-2-2-2-7-7-7-7-7-7-7-7-2-2-2-2-2-2-2-2-7-8-6-|
A|-7-7-5-5-5-5-(x4)-2-2-2-2-2-2-2-2-7-7-7-7-7-7-7-7-2-2-2-2-2-2-2-2-7-8-6-|
E|-5-5-3-3-3-3------0-0-0-0-0-0-0-0-5-5-5-5-5-5-5-5-0-0-0-0-0-0-0-0-5-6-4-|

Chorus:
e|-------------------------------------------|
B|-------------------------------------------|
G|-------------------------------------------|
D|-7-8-6-6-6-6-7-8-6-6-6-6-7-8-6-6-6-6-7-8-6-|
A|-7-8-6-6-6-6-7-8-6-6-6-6-7-8-6-6-6-6-7-8-6-|
E|-5-6-4-4-4-4-5-6-4-4-4-4-5-6-4-4-4-4-5-6-4-|

Play all this twice and that's it!
Tap to rate this tab
 
# A B C D E F G H I J K L M N O P Q R S T U V W X Y Z