Song name
# A B C D E F G H I J K L M N O P Q R S T U V W X Y Z

Beatcivilian - Hold Up tab

This is just the chords I've worked out from their live shows, someone else can do the
parts. This is my first tab so might not be completely perfect, but sounds right.

Intro: x4

e|---------------------------------------------------------------------------------|
B|---------------------------------------------------------------------------------|
G|--9--9---------------------------------------------------------------------------|
D|--9--9--7--9---------------------------------------------------------------------|
A|--7--7--7--9---------------------------------------------------------------------|
E|--------5--7---------------------------------------------------------------------|
Then:
e|------------------------------------------------------------|
B|------------------------------------------------------------|
G|---9--9---9--9---9--9---9--9---9--9---9--9------------5--5--|
D|---9--9---9--9---9--9---9--9---9--9---9--9------7--5--5--5--|
A|---7--7---7--7---7--7---7--7---7--7---7--7------7--5--3--7--|
E|------------------------------------------------5--3--------|

Main Riff/Verse
e|---------------------------------------------------------------------------------------|
B|---------------------------------------------------------------------------------------|
G|---9--9---------7--7-------------------------------------------------------------------|
D|---9--9--9-\-7--7--7--7-/--9-----------------------------------------------------------|
A|---7--7--9-\-7--5--5--7-/--9-----------------------------------------------------------|
E|---------7-\-5--------5-/--7-----------------------------------------------------------|

Repeat Verse and Intro till solo where these chords are played over it:

e|------------------------------------------------------------------------|
B|------------------------------------------------------------------------|
G|-----------------9--9---9--9---9--9---9--9---9--9---9--9---9--9---9--9--|
D|--9--9--9--9-----9--9---9--9---9--9---9--9---9--9---9--9---9--9---9--9--|
A|--9--9--9--9-----7--7---7--7---7--7---7--7---7--7---7--7---7--7---7--7--|
E|--7--7--7--7------------------------------------------------------------|

e|-------------------------------------------------------|
B|-------------------------------------------------------|
G|--7--7---7--7---9--9---9--9----------------------------|
D|--7--7---7--7---9--9---9--9----9---9---9---9--9--9--9--|
A|--5--5---5--5---7--7---7--7----9---9---9---9--9--9--9--|
E|-------------------------------7---7---7---7--7--7--7--|

Bridge: Strummed and Palm muted:x2
e|----------------------------------------|
B|----------------------------------------|
G|--9--9--9--9---------7--7--7--7---------|
D|--9--9--9--9--9-\-7--7--7--7--7--7-/-9--|
A|--7--7--7--7--9-\-7--5--5--5--5--7-/-9--|
E|--------------7-\-5--------------5-/-7--|

Back To Main Riff then Intro Chords which include an extra riff at the end which is 
like this:
e|---------------------------------------------------------------------------------------|
B|---------------------------------------------------------------------------------------|
G|-----------------------------9---------------------------------------------------------|
D|--9--7--7--9--7--7--9--7--7--9---------------------------------------------------------|
A|--9--7--7--9--7--7--9--7--7--7---------------------------------------------------------|
E|--7--5--5--7--5--5--7--5--5------------------------------------------------------------|

If you listen to the song you will get the timings right.


| /  slide up
| \  slide down
| h  hammer-on
| p  pull-off
| ~  vibrato
| +  harmonic
| x  Mute note
Tap to rate this tab
# A B C D E F G H I J K L M N O P Q R S T U V W X Y Z