Song name
# A B C D E F G H I J K L M N O P Q R S T U V W X Y Z

Beatles - And I Love Her tab

Help us improve GuitareTab! Take a short survey!
The Beatles: And I Love Her - Arranged for solo guitar.

Tuning: Standard (EADGBE)



INTRO

  E E E   Q   E E E E E E   Q   E E E E E E   Q   E E E E E E   Q   E E E E E E
E---3p2-|-0---0-0---0-0-0-|-----0-0-----3p2-|-0---0-0---0-0-0-|-----0-0-----3p2-|
B-3-----|-----1-1---1-1-1-|-----1-1---3-----|-----0-0---0-0-0-|-----0-0---3-----|
G-------|-----2-2---2-2-2-|-----2-2---------|-----0-0---0-0-0-|-----0-0---------|
D-------|-----------------|-----------------|---------0-------|---------0-------|
A-------|-0-------0-------|-0-------0-------|-----------------|-----------------|
E-------|-----------------|-----------------|-3---------------|-3---------------|



  VERSE

    Q   Q   Q   Q     E E E E Q   E E   Q   Q   Q   Q     E E E E E E E E
E-|-----------------|-2-0---3---------|-----------------|-2p0-------------|
B-|---------0---1---|---------------0-|---------0---1---|-------0-----0---|
G-|-----2-----------|-----0-------0---|-----2-----------|-----0-----0---0-|
D-|-----2-------2---|-----------------|-----2-------2---|-----------------|
A-|-0-------0-------|-----------------|-0-------0-------|-----------------|
E-|-----------------|-0-------0-------|-----------------|-0-------0-------|
    I give her        all my love,      that's all I      do.

    Q   Q   Q   Q     E E E E Q   E E   Q   Q   Q   Q     Q   Q   Q   E E
E-|-----------------|-2-0---3---------|-----3---0-------|-----------------|
B-|---------0---1---|-----------------|-----1-------1---|-0---------------|
G-|-----2-----------|-----0-----------|-----0-----------|-----2-----------|
D-|-----2-------2---|-----------------|-----2-----------|-0-----------2p0-|
A-|-0-------0-------|-------------0h2-|-3---------------|---------0-------|
E-|-----------------|-0-------0-------|-----------------|-----------------|
    And if you        saw my love,      you'd love her    too.        I

    Q   Q   Q   E E   Q   E E E E E E   Q   Q   Q   Q     E E E E Q   E E
E-|-------------0-0-|-----0-0---0-0-0-|-----------------|-2-0---3---------|
B-|-----0-------0-0-|-----0-0---0-0-0-|---------0---1---|---------------0-|
G-|-------------0-0-|-----0-0---0-0-0-|-----2-----------|-----0-------0---|
D-|-2---------------|-----------------|-----2-------2---|-----------------|
A-|-----------------|-----------------|-0-------0-------|-----------------|
E-|-3-------3-------|-3-------3-------|-----------------|-0-------0-------|
    lover her.                          She gives me      ev'rything,

    Q   Q   Q   Q     E E E E E E E E   Q   Q   Q   Q     E E E E Q   E E
E-|-----------------|-2p0-------------|-----------------|-2-0---3---------|
B-|---------0---1---|-------0-----0---|---------0---1---|-----------------|
G-|-----2-----------|-----0-----0---0-|-----2-----------|-----0-----------|
D-|-----2-------2---|-----------------|-----2-------2---|-----------------|
A-|-0-------0-------|-----------------|-0-------0-------|-------------0h2-|
E-|-----------------|-0-------0-------|-----------------|-0-------0-------|
    And tenderly.                       The kiss my       lover brings,

    Q   Q   Q   Q     Q   Q   Q   E E   Q   Q   Q   E E   Q   E E E E E E
E-|-----3---0-------|-----------------|-------------0-0-|-----0-0---0-0-0-|
B-|-----1-------1---|-0---------------|-----0-------0-0-|-----0-0---0-0-0-|
G-|-----0-----------|-----2-----------|-------------0-0-|-----0-0---0-0-0-|
D-|-----2-----------|-0-----------2p0-|-2---------------|-----------------|
A-|-3---------------|---------0-------|-----------------|-----------------|
E-|-----------------|-----------------|-3-------3-------|-3-------3-------|
    she brings it to  me.       And I   love her.



  BRIDGE

    Q   E E E E E E   Q   E E E E Q     Q   Q   E E E E   Q   E E E E Q
E-|-----------------|-----------2-----|-----2-----------|-----------------|
B-|-------0-0-0---3-|-------3---------|-----0---3-0---3-|-----------3-----|
G-|-----0-------0---|-----2-------2---|-----0-------0---|-------4---------|
D-|-----------------|-0-------0-------|-----------------|-----4-------4---|
A-|-----------------|-----------------|-----------------|-2-------2-------|
E-|-0-------0-------|-----------------|-0-------0-------|-----------------|
    A love like ours                    could never die,

    Q   Q   E E E E   Q   Q   Q   Q     E E E E E E Q     Q   E E E E E E
E-|-----2-----------|-----------------|-------2---------|-----2-2---2-2-2-|
B-|-----0---3-0---3-|-------------3---|-0---------0-----|-----1-1---1-1-1-|
G-|-----0-------0---|---------4-------|---2---------2---|-----2-2---2-2-2-|
D-|-----------------|-----4-------4---|-0---0---0-------|-0-------0-------|
A-|-----------------|-2-------2-------|-----------------|-----------------|
E-|-0-------0-------|-----------------|-----------------|-----------------|
    as long as I      have you          near me.



  VERSE

    Q   Q   Q   Q     E E E E Q   E E   Q   Q   Q   Q     E E E E E E E E
E-|-----------------|-2-0---3---------|-----------------|-2p0-------------|
B-|---------0---1---|---------------0-|---------0---1---|-------0-----0---|
G-|-----2-----------|-----0-------0---|-----2-----------|-----0-----0---0-|
D-|-----2-------2---|-----------------|-----2-------2---|-----------------|
A-|-0-------0-------|-----------------|-0-------0-------|-----------------|
E-|-----------------|-0-------0-------|-----------------|-0-------0-------|
    Bright are the    stars that shine, dark is the sky,

    Q   Q   Q   Q     E E E E Q   E E   Q   Q   Q   Q     Q   Q   Q   E E
E-|-----------------|-2-0---3---------|-----3---0-------|-----------------|
B-|---------0---1---|-----------------|-----1-------1---|-0---------------|
G-|-----2-----------|-----0-----------|-----0-----------|-----2-----------|
D-|-----2-------2---|-----------------|-----2-----------|-0-----------2p0-|
A-|-0-------0-------|-------------0h2-|-3---------------|---------0-------|
E-|-----------------|-0-------0-------|-----------------|-----------------|
    I know this       love of mine      will never die              And I



                                      OUTRO

    Q   Q   Q   E E   Q   E E E E E E   Q   E E E E E E   Q   E E E E E E
E-|-------------0-0-|-----0-0-----3p2-|-0---0-0---0-0-0-|-----0-0-----3p2-|
B-|-----0-------0-0-|-----0-0---3-----|-----1-1---1-1-1-|-----1-1---3-----|
G-|-------------0-0-|-----0-0---------|-----2-2---2-2-2-|-----2-2---------|
D-|-2---------------|---------0-------|-----------------|-----------------|
A-|-----------------|-----------------|-0-------0-------|-0-------0-------|
E-|-3-------3-------|-3---------------|-----------------|-----------------|
    love her.

    Q   E E E E E E   Q   E E E E E E   Q   E E E E E E   W
E-|-0---0-0---0-0-0-|-0---0-0---0-0-0-|-----0-0-----3p2-|-0---------------|
B-|-----0-0---0-0-0-|-----1-1---1-1-1-|-----1-1---3-----|-0---------------|
G-|-----0-0---0-0-0-|-----2-2---2-2-2-|-----2-2---------|-1---------------|
D-|---------0-------|-----------------|-----------------|-2---------------|
A-|-----------------|-0-------0-------|-0-------0-------|-2---------------|
E-|-3---------------|-----------------|-----------------|-0---------------|
Related for And I Love Her tab