Guitaretab - guitar tabs
Song name
# A B C D E F G H I J K L M N O P Q R S T U V W X Y Z
Home / B / Beatles / Anna tab

Beatles - Anna tab

  -------------------------------------------------------------

  THE BEATLES - ANNA (Go To Him) (Alexander) From PLEASE PLEASE 
                ME album. Released on March, 22nd 1963.
   
  -------------------------------------------------------------

  Tabbed by:PJVillanueva


  


  The song is a cover from Arthur Alexander, also author of 
  A SHOT OF RHYTHM AND BLUES, YOU BETTER MOVE ON and SOLDIER 
  OF LOVE, among other hits. This version by The Beatles is 
  more defined than the original, which also had a string 
  arrangement . The Beatles recorded it at a higher pitch for 
  John, who, although at first sounds as If he's got a cold,
  delivers a great vocal part, more varied and confident than 
  Alexander's and with some very smart rhythm changes too. 
  This, like the rest of the covers on PLEASE PLEASE ME (ANNA, 
  BOYS, CHAINS and TWIST AND SHOUT) were recorded live without 
  any overdubs, with the exception of the celesta recorded by
  Martin on BABY IT'S YOU, to reinforce its guitar solo.





  Anna, you come and ask me girl
  To set you free, girl
  You say he loves you more than me
  So I will set you free
  Go with him, go with him

  Anna, girl, before you go now
  I want you to know now
  That I still love you so
  But if he loves you more, go with him

  All of my life I've been searching for a girl
  To love me like I love you. Oh, now

  But every girl I've ever had breaks my heart
  And leaves me sad, what am I
  What am I supposed to do oh, oh, oh 

  Anna, just one more thing, girl
  You give back your ring to me
  And I will set you free, go with him

  All of my life I've been searching for a girl
  To love me like I love you

  Cause let me tell you now
  But every girl I've ever had breaks my heart
  And leaves me sad, what am I
  What am I suppose to do oh, oh, oh 

  Anna, just one more thing, girl
  You give back your ring to me
  And I will set you free,
  Go with him, go with him
  You can go with him, girl, go with him



    INTRO
                                                                x
                                   
  e|------- ------- ------- -------|------- ------- ------- -------|
  B|-------------------------------|-------------------------------|
  G|-------------------------------|-------------------------------|
  D|-------------------------------|-------------------------------|
  A|-------------------------------|-------------------------------|
  E|-------------------------------|-------------------------------|



    D                               Bm
  e|2---2-- ----2-- ----2-- 2------|2---2-- ----2-- 2---2-- 2------|
  B|3---3-------3-------3---3---3--|3---3-------3---3---3---3---3--|
  G|2---2-------2-------2---2---2--|4---4-------4---4---4---4---4--|
  D|0---0-------0-------0---0---0--|4---4-------4---4---4---4---4--|
  A|-------------------------------|2---2-------2---2---2---2---2--|
  E|-------------------------------|-------------------------------|

  e|------- ------2 ------- -------|------- ------- ------- -------|
  B|------------3---3--------------|-------------------------------|
  G|--------------------2---3---4--|------------3---4---3---4---3--|
  D|-------------------------------|-------------------------------|
  A|-------------------------------|-------------------------------|
  E|-------------------------------|-------------------------------|



    D                               Bm
  e|2---2-- ----2-- ----2-- 2------|2------ ----2-- 2---2-- 2------|
  B|3---3-------3-------3---3------|3-----------3---3---3---3---3--|
  G|2---2-------2-------2---2------|4-----------4---4---4---4---4--|
  D|0---0-------0-------0---0------|4-----------4---4---4---4---4--|
  A|-------------------------------|2-----------2---2---2---2---2--|
  E|-------------------------------|-------------------------------|

  e|------- ------2 ------- -------|------- ------- ------- -------|
  B|------------3---3--------------|-------------------------------|
  G|2-------------------2---3---4--|------------3---4---3---4---3--|
  D|-------------------------------|-------------------------------|
  A|-------------------------------|-------------------------------|
  E|-------------------------------|-------------------------------|

    VERSE
    00:09

  e|2------ ----2-- ----2-- 2------|2---2-- 2---2-- ----2-- 2------|
  B|3-----------3-------3---3---3--|3---3---3---3-------3---3------|
  G|2-----------2-------2---2---2--|4---4---4---4-------4---4------|
  D|0-----------0-------0---0---0--|4---4---4---4-------4---4------|
  A|-------------------------------|2---2---2---2-------2---2------|
  E|-------------------------------|-------------------------------|
    Anna                                        you come    ask 
                                                        and
  e|------- ------2 ------- -------|------- ------- ------- -------|
  B|------------3---3--------------|-------------------------------|
  G|2-------------------2---3---4--|------------3---4---3---4---3--|
  D|-------------------------------|-------------------------------|
  A|-------------------------------|-------------------------------|
  E|-------------------------------|-------------------------------|




  e|2------ ----2-- 2---2-- 2------|2------ ----2-- ----2-- 2------|
  B|3-----------3---3---3---3---3--|3-----------3-------3---3---3--|
  G|2-----------2---2---2---2---2--|4-----------4-------4---4---4--|
  D|0-----------0---0---0---0---0--|4-----------4-------4---4---4--|
  A|-------------------------------|2-----------2-------2---2---2--|
  E|-------------------------------|-------------------------------|
    me, girl                                    to  set     you 
  e|------- ------2 ------- -------|------- ------- ------- -------|
  B|------------3---3--------------|-------------------------------|
  G|2-------------------2---3---4--|------------3---4---3---4---3--|
  D|-------------------------------|-------------------------------|
  A|-------------------------------|-------------------------------|
  E|-------------------------------|-------------------------------|


                                                REFRAIN

  e|2---2-- ----2-- 2---2-- 2------|2------ ----2-- ----2-- 2------|
  B|3---3-------3---3---3---3---3--|3-----------3-------3---3------|
  G|2---2-------2---2---2---2---2--|4-----------4-------4---4------|
  D|0---0-------0---0---0---0---0--|4-----------4-------4---4------|
  A|-------------------------------|2-----------2-------2---2------|
  E|-------------------------------|-------------------------------|
    free,                                       You say he  loves  
        girl                                                    you
  e|------- ------2 ------- -------|------- ------- ------- -------|
  B|------------3---3--------------|-------------------------------|
  G|2-------------------2---3---4--|------------3---4---3---4---3--|
  D|-------------------------------|-------------------------------|
  A|-------------------------------|-------------------------------|
  E|-------------------------------|-------------------------------|



    D           Bm              Em              A
  e|2---2-- ----2-- ----2-- 2---0--|----0-- 0---0-- ----0-- 0------|
  B|3---3-------3-------3---3---0--|----0---0---2-------2---2------|
  G|2---2-------4-------4---4---0--|----0---0---2-------2---2------|
  D|0---0-------4-------4---4---2--|----2---2---2-------2---2------|
  A|------------2-------2---2---2--|----2---2---0-------0---0------|
  E|----------------------------0--|----0---0----------------------|
    more        me      so  I       set you     free.       Go  with
        than                    will
  e|------- ------- ------- -------|------- ------- ------- -------|
  B|-------------------------------|-------------------------------|
  G|2-----------4---------------0--|--------0---0H2-----2---2------|
  D|-------------------------------|-------------------------------|
  A|-------------------------------|-------------------------------|
  E|-------------------------------|-------------------------------|


                                    INTERLUDE
    D                               Bm
  e|2---2-- ----2-- 2---2-- 2------|2------ ----2-- 2---2-- 2------|
  B|3---3-------3---3---3---3------|3-----------3---3---3---3------|
  G|2---2-------2---2---2---2------|4-----------4---4---4---4------|
  D|0---0-------0---0---0---0------|4-----------4---4---4---4------|
  A|-------------------------------|2-----------2---2---2---2------|
  E|-------------------------------|-------------------------------|
    him.                                                    Go  with
                               (Anna)
  e|------- ------2 ------- -------|------- ------- ------- -------|
  B|------------3---3--------------|-------------------------------|
  G|--------------------2---3------|4-----------3---4---3---4---3--|
  D|-------------------------------|-------------------------------|
  A|-------------------------------|-------------------------------|
  E|-------------------------------|-------------------------------|



    D                               Bm
  e|2---2-- ----2-- 2---2-- 2------|2------ ----2-- ----2-- 2---2--|
  B|3---3-------3---3---3---3---3--|3-----------3-------3---3---3--|
  G|2---2-------2---2---2---2---2--|4-----------4-------4---4---4--|
  D|0---0-------0---0---0---0---0--|4-----------4-------4---4---4--|
  A|-------------------------------|2-----------2-------2---2---2--|
  E|-------------------------------|-------------------------------|
    him.
                               (Anna)
  e|------- ------2 ------- -------|------- ------- ------- -------|
  B|------------3---3--------------|-------------------------------|
  G|--------------------2---3------|4-----------3---4---3---4---3--|
  D|-------------------------------|-------------------------------|
  A|-------------------------------|-------------------------------|
  E|-------------------------------|-------------------------------|

    VERSE
    00:35

  e|2------ 2---2-- ----2-- 2------|2------ 2---2-- ----2-- 2---2--|
  B|3-------3---3-------3---3---3--|3-------3---3-------3---3---3--|
  G|2-------2---2-------2---2---2--|4-------4---4-------4---4---4--|
  D|0-------0---0-------0---0---0--|4-------4---4-------4---4---4--|
  A|-------------------------------|2-------2---2-------2---2---2--|
  E|-------------------------------|-------------------------------|
    Anna,                                       girl,   before  you
  e|------- ------2 ------- -------|------- ------- ------- -------|
  B|------------3---3--------------|-------------------------------|
  G|--------------------2---3---4--|------------3---4---3---4---3--|
  D|-------------------------------|-------------------------------|
  A|-------------------------------|-------------------------------|
  E|-------------------------------|-------------------------------|



[ Tab from: http://www.guitaretab.com/b/beatles/1053.html ]
  e|2------ 2---2-- 2---2-- 2------|2---2-- 2---2-- ----2-- 2---2--|
  B|3-------3---3---3---3---3---3--|3---3---3---3-------3---3---3--|
  G|2-------2---2---2---2---2---2--|4---4---4---4-------4---4---4--|
  D|0-------0---0---0---0---0---0--|4---4---4---4-------4---4---4--|
  A|-------------------------------|2---2---2---2-------2---2---2--|
  E|-------------------------------|-------------------------------|
    go  now                                     I   want    you to
  e|------- ------2 ------- -------|------- ------- ------- -------|
  B|------------3---3--------------|-------------------------------|
  G|--------------------2---3---4--|------------3---4---3---4---3--|
  D|-------------------------------|-------------------------------|
  A|-------------------------------|-------------------------------|
  E|-------------------------------|-------------------------------|


                                                REFRAIN

  e|2------ 2---2-- 2---2-- 2------|2------ 2---2-- ----2-- 2------|
  B|3-------3---3---3---3---3---3--|3-------3---3-------3---3------|
  G|2-------2---2---2---2---2---2--|4-------4---4-------4---4------|
  D|0-------0---0---0---0---0---0--|4-------4---4-------4---4------|
  A|-------------------------------|2-------2---2-------2---2------|
  E|-------------------------------|-------------------------------|
    know now                                    that        still 
                                                    I
  e|------- ------2 ------- -------|------- ------- ------- -------|
  B|------------3---3--------------|-------------------------------|
  G|--------------------2---3---4--|------------3---4---3---4---3--|
  D|-------------------------------|-------------------------------|
  A|-------------------------------|-------------------------------|
  E|-------------------------------|-------------------------------|




  e|2------ ----2-- 2---2-- 2---0--|0------ 0---0-- ----0-- 0------|
  B|3-----------3---3---3---3---0--|0-------0---2-------2---2------|
  G|2-----------4---4---4---4---0--|0-------0---2-------2---2------|
  D|0-----------4---4---4---4---2--|2-------2---2-------2---2------|
  A|------------2---2---2---2---2--|2-------2---0-------0---0------|
  E|----------------------------0--|0-------0----------------------|
    love        so,     but If  he  loves       more        go  with     
        you                             you
  e|------- ------- ------- -------|------- ------- ------- -------|
  B|-------------------------------|0------------------------------|
  G|2---------------------------0--|--------0---2-------2---2------|
  D|------------4------------------|-------------------------------|
  A|-------------------------------|-------------------------------|
  E|-------------------------------|-------------------------------|




  e|2------ 2---2-- ----2-- 2------|2------ 2---2-- 2---2-- 2------|
  B|3-------3---3-------3---3------|3-------3---3---3---3---3------|
  G|2-------2---2-------2---2------|2-------2---2---2---2---2------|
  D|0-------0---0-------0---0------|0-------0---0---0---0---0------|
  A|-------------------------------|-------------------------------|
  E|-------------------------------|-------------------------------|
    him.
  e|2------ ----2-- ------- ----2--|2------ 2------ ------- -------|
  B|3-----------3---------------3--|3-------3----------------------|
  G|2-----------2---------------2--|2-------2----------------------|
  D|0-----------0---------------0--|0-------0----------------------|
  A|-------------------------------|-------------------------------|
  E|-------------------------------|-------------------------------|

    MIDDLE SIXTEEN
    00:57
    G
  e|3------ 3------ 3---3-- 3------|3------ 3---3-- ----3-- 3------|
  B|3-------3-------3---3---3------|3-------3---3-------3---3------|
  G|0-------0-------0---0---0------|0-------0---0-------0---0------|
  D|0-------0-------0---0---0------|0-------0---0-------0---0------|
  A|2-------2-------2---2---2------|2-------2---2-------2---2------|
  E|3-------3-------3---3---3------|3-------3---3-------3---3------|
                    All of  my  life                        I've
                                                                been
  e|------- ----7-- ------- 7------|------- ----7-- ------- 7------|
  B|------------8-----------8------|------------8-----------8------|
  G|------------7-----------7------|------------7-- ------- 7------|
  D|------------9-----------9------|------------9-----------9------|
  A|-------------------------------|-------------------------------|
  E|-------------------------------|-------------------------------|




  e|3------ 3---3-- 3------ 3---3--|3------ 3---3-- ----3-- 3------|
  B|3-------3---3---3-------3---3--|3-------3---3-------3---3------|
  G|0-------0---0---0-------0---0--|0-------0---0-------0---0------|
  D|0-------0---0---0-------0---0--|0-------0---0-------0---0------|
  A|2-------2---2---2-------2---2--|2-------2---2-------2---2------|
  E|3-------3---3---3-------3---3--|3-------3---3-------3---3------|
    searching           for a   girl                            to
  e|------- ----7-- ------- 7------|------- ----7-- ------- 7------|
  B|------------8-----------8------|------------8-----------8------|
  G|------------7-----------7------|------------7-- ------- 7------|
  D|------------9-----------9------|------------9-----------9------|
  A|-------------------------------|-------------------------------|
  E|-------------------------------|-------------------------------|



    D
  e|2------ 2---2-- 2---2-- 2---2--|2------ 2---2-- 2---2-- 2------|
  B|3-------3---3---3---3---3---3--|3-------3---3---3---3---3------|
  G|2-------2---2---2---2---2---2--|2-------2---2---2---2---2------|
  D|0-------0---0---0---0---0---0--|0-------0---0---0---0---0------|
  A|-------------------------------|-------------------------------|
  E|-------------------------------|-------------------------------|
    love                    like    I                       love
        me
  e|------- ----5-- ------- 5------|------- ----5-- ------- 5------|
  B|------------7-----------7------|------------7-----------7------|
  G|------------7-----------7------|------------7-----------7------|
  D|------------7-----------7------|------------7-----------7------|
  A|------------5-----------5------|------------5-----------5------|
  E|-------------------------------|-------------------------------|
        me



  e|2------ 2---2-- 2---2-- 2---2--|2---2-- 2------ 2------ 2------|
  B|3-------3---3---3---3---3---3--|3---3---3-------3-------3------|
  G|2-------2---2---2---2---2---2--|2---2---2-------2-------2------|
  D|0-------0---0---0---0---0---0--|0---0---0-------0-------0------|
  A|-------------------------------|-------------------------------|
  E|-------------------------------|-------------------------------|
    you.                                        Oh, now
  e|------- ----5-- ------- 5------|------- ------- ------- -------|
  B|------------7-----------7------|--------3-------5-------7------|
  G|------------7-----------7------|-------------------------------|
  D|------------7-----------7------|--------4-------5-------7------|
  A|------------5-----------5------|-------------------------------|
  E|-------------------------------|-------------------------------|



    G
  e|3------ 3---3-- 3------ 3------|3------ 3---3-- ----3-- 3---3--|
  B|3-------3---3---3-------3------|3-------3---3-------3---3---3--|
  G|0-------0---0---0-------0------|0-------0---0-------0---0---0--|
  D|0-------0---0---0-------0------|0-------0---0-------0---0---0--|
  A|2-------2---2---2-------2------|2-------2---2-------2---2---2--|
  E|3-------3---3---3-------3------|3-------3---3-------3---3---3--|
                But     every girl      I've   ever had
  e|------- ----7-- ------- 7------|------- ----7-- ------- 7------|
  B|------------8-----------8------|------------8-----------8------|
  G|------------7-----------7------|------------7-- ------- 7------|
  D|------------9-----------9------|------------9-----------9------|
  A|-------------------------------|-------------------------------|
  E|-------------------------------|-------------------------------|




  e|3---3-- ----3-- 3------ 3------|3------ 3---3-- 3---3-- 3------|
  B|3---3-------3---3-------3------|3-------3---3---3---3---3------|
  G|0---0-------0---0-------0------|0-------0---0---0---0---0------|
  D|0---0-------0---0-------0------|0-------0---0---0---0---0------|
  A|2---2-------2---2-------2------|2-------2---2---2---2---2------|
  E|3---3-------3---3-------3------|3-------3---3---3---3---3------|
                breaks my heart and  leave  me   sad
  e|------- ----7-- ------- -------|------- ----7-- ------- 7------|
  B|------------8------------------|------------8-------8---8------|
  G|------------7------------------|------------7-- ----7-- 7------|
  D|------------9------------------|------------9-------9---9------|
  A|-------------------------------|-------------------------------|
  E|-------------------------------|-------------------------------|



    E
  e|0---0-- 0------ 0------ 0---0--|0------ 0---0-- ------- 0------|
  B|0---0---0-------0-------0---0--|0-------0---0-----------0------|
  G|1---1---1-------1-------1---1--|1-------1---1-----------1------|
  D|2---2---2-------2-------2---2--|2-------2---2-----------2------|
  A|2---2---2-------2-------2---2--|2-------2---2-----------2------|
  E|0---0---0-------0-------0---0--|0-------0---0-----------0------|
              what            what              supposed        to
               am I            am I
  e|------- ----7-- ------- 7------|------- ----7-- ------- 7------|
  B|------------9-----------9------|------------9-----------9------|
  G|------------9-----------9------|------------9-----------9------|
  D|------------9-----------9------|------------9-----------9------|
  A|------------7-----------7------|------------7-----------7------|
  E|-------------------------------|-------------------------------|



    A
  e|0------ 0---0-- 0------ 0---0--|0---0-- 0------ 0---0-- 0------|
  B|2-------2---2---2-------2---2--|2---2---2-------2---2---2------|
  G|2-------2---2---2-------2---2--|2---2---2-------2---2---2------|
  D|2-------2---2---2-------2---2--|2---2---2-------2---2---2------|
  A|0-------0---0---0-------0---0--|0---0---0-------0---0---0------|
  E|-------------------------------|-------------------------------|
    do.                             Oh, oh,     oh, oh, oh,     oh
  e|------- ----5-- ------- 5------|------- ----5-- ------- 5--- --|
  B|------------5-----------5------|------------5-----------5------|
  G|------------6-----------6------|------------6-----------6------|
  D|------------7-----------7------|------------7-----------7------|
  A|------------7-----------7------|------------7-----------7------|
  E|------------5-----------5------|------------5-----------5------|



    VERSE/REFRAIN
    01:31
    Anna, just one more thing, girl
    You give back your ring to me
    And I will set you free, go with him

    MIDDLE SIXTEEN 
    01:49
    All of my life I've been searching for a girl
    To love me like I love you
    But let me tell you now
    But every girl I've ever had breaks my heart
    And leaves me sad, what am I
    What am I suppose to do oh, oh, oh 

    CODA
    02:23
    Anna, just one more thing, girl
    You give back your ring to me
    And I will set you free,
    Go with him, go with him
    You can go with him, girl, go with him. 







        B  Bend
        R  Release
        /  Slide up
        \  Slide down
        H  Hammer-on
        P  Pull-off
        ~  Vibrato
        +  Harmonic
        x  Mute note
        .  Play note like a dot in standard notation
        ^  Ties two notes together
        (. Pause



Related for Anna tab
Anna chords by Beatles