Song name
# A B C D E F G H I J K L M N O P Q R S T U V W X Y Z

Beatles - Being For The Benefit Of Mr Kite tab

    -----------------------------------------------------------

    BEATLES - FOR THE BENEFIT OF MR. KITE (Lennon & McCartney).
              From SGT. PEPPER'S LONELY HEARTS CLUB BAND album.
              Released on 1st June, 1967.
   
    -----------------------------------------------------------

    Tabbed by:PJVillanueva





    For the benefit of Mr. Kite
    There will be a show tonight on trampoline
    The Hendersons will all be there
    Late of Pablo-Fanques Fair, what a scene.

    Over men and horses hoops and garters
    Lastly through a hogshead of real fire!
    In this way Mr. K. will challenge the world!

    The celebrated Mr. K.
    Performs his feat on Saturday at Bishopsgate.
    The Hendersons will dance and sing
    As Mr. Kite flies through the ring don't be late

    Messrs. K and H. assure the public
    Their production will be second to none
    And, of course, Henry The Horse dances the waltz!

    The band begins at ten to six
    When Mr. K. performs his tricks without a sound
    And Mr. H. will demonstrate
    Ten somersaults he'll undertake on solid ground

    'ving been some days in preparation
    A splendid time is guaranteed for all
    And tonight Mr. Kite is topping the bill.



     12/8 


    INTRO

                                    Bb
  e|------- ------- ------- -------|6----6- 6------ 6----6- 6----6-|
  B|-------------------------------|6----6--6-------6----6--6----6-|
  G|-------------------------------|7----7--7-------7----7--7----7-|
  D|-------------------------------|8----8--8-------8----8--8----8-|
  A|-------------------------------|8----8--8-------8----8--8----8-|
  E|-------------------------------|6----6--6-------6----6--6----6-|

  e|------- ------- ------- -------|------- ------- ------- 10-----|
  B|-------------------------------|--------11---10-11---13------11|
  G|-------------------------------|-------------------------------|
  D|-------------------------------|-------------------------------|
  A|-------------------------------|-------------------------------|
  E|-------------------------------|-------------------------------|




    A                               Dm              G
  e|5------ 5----5- 5------ 5------|5------ ------- 3------ -------|
  B|5-------5----5--5-------5------|6---------------3--------------|
  G|6-------6----6--6-------6------|7---------------4--------------|
  D|7-------7----7--7-------7------|7---------------5--------------|
  A|7-------7----7--7-------7------|5---------------5--------------|
  E|5-------5----5--5-------5------|----------------3--------------|

  e|------- ------- 9----10 12---9-|10----- ------- ------- -------|
  B|10------10---12----------------|-------------------------------|
  G|-------------------------------|----------------12-------------|
  D|-------------------------------|-------------------------------|
  A|-------------------------------|-------------------------------|
  E|-------------------------------|-------------------------------|
                                                              For 
                                                                 the
 

    00:07
    Cm              G+5             Bb              Bbmaj7   
  e|------- 3------ ------- 3------|------- 1------ ------- 1------|
  B|--------4---------------4------|--------3---------------3------|
  G|--------5---------------4------|--------3---------------3------|
  D|-------------------------------|-------------------------------|
  A|3---------------2--------------|1---------------0--------------|
  E|-------------------------------|-------------------------------|
    benefit   of Mr.     Kite       There   be   show    tonight on 
                                         will  a



    G                               G+5
  e|------- 3------ ------- 3------|------- 3------ ------- 3------|
  B|--------3---------------3------|--------4---------------4------|
  G|--------4---------------4------|--------4---------------4------|
  D|-------------------------------|-------------------------------|
  A|-------------------------------|-------------------------------|
  E|3---------------3--------------|3---------------3--------------|
    trampoline.                                                  The


    00:15

  e|------- 3------ ------- 3------|------- 1------ ------- 1------|
  B|--------4---------------4------|--------3---------------3------|
  G|--------5---------------4------|--------3---------------3------|
  D|-------------------------------|-------------------------------|
  A|3---------------2--------------|1---------------0--------------|
  E|-------------------------------|-------------------------------|
    Hendersons   will    be there   late of Pablo   Fanques Fair, 
                    all



    A                               Dm              Dm7
  e|------- 0------ ------- 0------|------- 1------ ------- 1------|
  B|--------2---------------2------|--------3---------------3------|
  G|--------2---------------2------|--------2---------------2------|
  D|-------------------------------|0------------------------------|
  A|0---------------0--------------|----------------3--------------|
  E|-------------------------------|-------------------------------|
    what scene.                  Over    and        hoops   garters
        a                           men     horses       and



    Bb              A               Dm      Dm7     Bbmaj7  Dm
  e|------- 1------ ------- 0------|------- 1------ ------- 1------|
  B|--------3---------------2------|--------3---------------3------|
  G|--------3---------------2------|--------2---------------2------|
  D|-------------------------------|0------------------------------|
  A|1---------------0--------------|--------3-------1-------0------|
  E|-------------------------------|-------------------------------|
    lastly  through           of real    fire!                in this
              a  hogshed



    Bb6             A               Dm      Dm7     Bbmaj7  Dm
  e|------- 1------ ------- 0------|------- 1------ ------- 1------|
  B|--------3---------------2------|--------3---------------3------|
  G|--------3---------------2------|--------2---------------2------|
  D|-------------------------------|0------------------------------|
  A|----------------0--------------|--------3-------1-------0------|
  E|3------------------------------|-------------------------------|
    way     Mr      Kite will    the
                            challenge
                                    world


    Bb6             A               Dm              G
  e|------- 1------ ------- 0------|1------ ------- ------- -------|
  B|--------3---------------2------|3---------------3--------------|
  G|--------3---------------2------|2---------------4--------------|
  D|-------------------------------|0---------------5--------------|
  A|----------------0--------------|-------------------------------|
  E|3------------------------------|----------------3--------------|

  e|------- 10----- ------- 9------|10----- ------- ------- -------|
  B|11---13------11-10---12------10|-------------------------------|
  G|-------------------------------|----------------12-------------|
  D|-------------------------------|-------------------------------|
  A|-------------------------------|-------------------------------|
  E|-------------------------------|-------------------------------|
                                                                 The


    00:37
    celebrated Mr. K.
    Performs his feat on Saturday at Bishopsgate.
    The Hendersons will dance and sing
    As Mr. Kite flies through the ring don't be late

    Messrs. K and H. assure the public
    Their production will be second to none
    And, of course, Henry The Horse dances the waltz!


    01:00  
    Dm                            Dmmaj7
  e|--------- 1-------- 1--------|--------- 1-------- 1--------|
  B|----------3---------3--------|----------3---------3--------|
  G|----------2---------2--------|----------2---------2--------|
  D|0----------------------------|-----------------------------|
  A|-----------------------------|4----------------------------|
  E|-----------------------------|-----------------------------|


    Dm7                           Dm6
  e|--------- 1-------- 1--------|--------- 1-------- 1--------|
  B|----------3---------3--------|----------3---------3--------|
  G|----------2---------2--------|----------2---------2--------|
  D|-----------------------------|-----------------------------|
  A|3----------------------------|2----------------------------|
  E|-----------------------------|-----------------------------|


    A
  e|--------- 0-------- 0--------|--------- 0-------- 0--------|
  B|----------2---------2--------|----------2---------2--------|
  G|----------2---------2--------|----------2---------2--------|
  D|-----------------------------|-----------------------------|
  A|0----------------------------|0----------------------------|
  E|-----------------------------|-----------------------------|



  e|--------- 0-------- 0--------|--------- 0-------- 0--------|
  B|----------2---------2--------|----------2---------2--------|
  G|----------2---------2--------|----------2---------2--------|
  D|-----------------------------|-----------------------------|
  A|0----------------------------|0----------------------------|
  E|-----------------------------|-----------------------------|


    01:09

  e|--------- 1-------- 1--------|--------- 1-------- 1--------|
  B|----------3---------3--------|----------3---------3--------|
  G|----------2---------2--------|----------2---------2--------|
  D|0----------------------------|-----------------------------|
  A|-----------------------------|4----------------------------|
  E|-----------------------------|-----------------------------|



  e|--------- 1-------- 1--------|--------- 1-------- 1--------|
  B|----------3---------3--------|----------3---------3--------|
  G|----------2---------2--------|----------2---------2--------|
  D|-----------------------------|-----------------------------|
  A|3----------------------------|2----------------------------|
  E|-----------------------------|-----------------------------|

    
    B       
  e|--------- 2-------- 2--------|--------- 2-------- 2--------|
  B|----------4---------4--------|----------4---------4--------|
  G|----------4---------4--------|----------4---------4--------|
  D|-----------------------------|-----------------------------|
  A|2----------------------------|2----------------------------|
  E|-----------------------------|-----------------------------|

  e|--------- --------- ---------|--------- --------- -------x-|
  B|-----------------------------|-----------------------------|
  G|-----------------------------|-----------------------------|
  D|-----------------------------|-----------------------------|
  A|-----------------------------|-----------------------------|
  E|-----------------------------|-----------------------------|


    01:16
    Em                            Em7
  e|--------- 0-------- 0--------|--------- 0-------- 0--------|
  B|----------0---------0--------|----------0---------0--------|
  G|----------0---------0--------|----------0---------0--------|
  D|2----------------------------|0----------------------------|
  A|-----------------------------|-----------------------------|
  E|-----------------------------|-----------------------------|

  e|--------- 12-----x- ---------|--------- --------- ---------|
  B|-----------------------------|-----------------------------|
  G|9------x------------11-----x-|12-----x--14-----x--16-----x-|
  D|-----------------------------|-----------------------------|
  A|-----------------------------|-----------------------------|
  E|-----------------------------|-----------------------------|



    C                             B
  e|--------- --------- ---------|--------- --------- ---------|
  B|----------5---------5--------|----------4---------4--------|
  G|----------5---------5--------|----------4---------4--------|
  D|----------5---------5--------|----------4---------4--------|
  A|3----------------------------|2----------------------------|
  E|-----------------------------|-----------------------------|

  e|--------- --------- ---------|--------- --------- ---------|
  B|----------15-----x--17-----x-|16-----x--17-----x--19-----x-|
  G|17-----x---------------------|-----------------------------|
  D|-----------------------------|-----------------------------|
  A|-----------------------------|-----------------------------|
  E|-----------------------------|-----------------------------|




  e|--------- 0-------- 0--------|--------- 0-------- 0--------|
  B|----------0---------0--------|----------0---------0--------|
  G|----------0---------0--------|----------0---------0--------|
  D|2----------------------------|0----------------------------|
  A|-----------------------------|-----------------------------|
  E|-----------------------------|-----------------------------|

  e|--------- --------- 22-----x-|19-----x- --------- ---------|
  B|20-----x--17-----x-----------|----------20-----x--17-----x-|
  G|-----------------------------|-----------------------------|
  D|-----------------------------|-----------------------------|
  A|-----------------------------|-----------------------------|
  E|-----------------------------|-----------------------------|




  e|--------- --------- ---------|--------- --------- ---------|
  B|----------5---------5--------|----------4---------4--------|
  G|----------5---------5--------|----------4---------4--------|
  D|----------5---------5--------|----------4---------4--------|
  A|3----------------------------|2----------------------------|
  E|-----------------------------|-----------------------------|

  e|--------- --------- ---------|22-----x- 19-----x- ---------|
  B|17-----x--19-----x--17-----x-|--------------------20-----x-|
  G|-----------------------------|-----------------------------|
  D|-----------------------------|-----------------------------|
  A|-----------------------------|-----------------------------|
  E|-----------------------------|-----------------------------|



    Em                            
  e|--------- 3-------- 3--------|3-------- --------- ---------|
  B|----------5---------5--------|5----------------------------|
  G|----------4---------4--------|4----------------------------|
  D|2----------------------------|2----------------------------|
  A|-----------------------------|-----------------------------|
  E|-----------------------------|-----------------------------|

  e|22-----x- 19-----x- ---------|--------- 19-----x- ---------|
  B|--------------------20-----x-|20-----x------------20-----x-|
  G|-----------------------------|-----------------------------|
  D|-----------------------------|-----------------------------|
  A|-----------------------------|-----------------------------|
  E|-----------------------------|-----------------------------|


                         X
    G7
  e|3--3--3 3-----3 3------ -------|
  B|6--6--6-6-----6-6--------------|
  G|4--4--4-4-----4-4--------------|
  D|x--x--x-x-----x-x--------------|
  A|5--5--5-5-----5-5--------------|
  E|3--3--3-3-----3-3--------------|
                                 The


    01:29
    band begins at ten to six
    When Mr. K. performs his tricks without a sound
    And Mr. H. will demonstrate
    Ten somersaults he'll undertake on solid ground ... 'ving

    01:44
    been some days in preparation
    A splendid time is guaranteed for all
    And tonight Mr. Kite is topping the bill ...



  e|------- ------- ------- -------|------- ------- ------- -------|
  B|-------------------------------|-------------------------------|
  G|-------------------------------|-------------------------------|
  D|-------------------------------|-----------------------------7-|
  A|-------------------------------|-------------------------------|
  E|-------------------------------|-------------------------------|


    01:57
            Dm              A+5             F               F-5
  e|------- 5------ ------- 5------|------- 5------ ------- 5------|
  B|--------6---------------6------|--------6---------------6------|
  G|--------7---------------6------|--------5---------------4------|
  D|-------------------------------|-------------------------------|
  A|-------------------------------|-------------------------------|
  E|-------------------------------|-------------------------------|

  e|------- ------- ------- -------|------- ------- ------- -------|
  B|-------------------------------|-------------------------------|
  G|7----7--7----7--6----6---------|5----5--5----5--4----4---------|
  D|------------------------7----7-|------------------------5----5-|
  A|-------------------------------|-------------------------------|
  E|-------------------------------|-------------------------------|



         A
  e|------- ------- ------- -------|------- ------- ------- -------|
  B|-----5-------5-------5-------5-|-----5-------5-------5-------5-|
  G|-----6-------6-------6-------6-|-----6-------6-------6-------6-|
  D|-----7-------7-------7-------7-|-----7-------7-------7-------7-|
  A|-------------------------------|-------------------------------|
  E|-------------------------------|-------------------------------|

  e|------- ------- ------- -------|------- ------- ------- -------|
  B|-------------------------------|-------------------------------|
  G|-------------------------------|-------------------------------|
  D|7----7--7----------------------|-----------------------------7-|
  A|-------------------------------|-------------------------------|
  E|-------------------------------|-------------------------------|



            Dm              A+5             F               F-5
  e|------- 5------ ------- 5------|------- 5------ ------- 5------|
  B|--------6---------------6------|--------6---------------6------|
  G|--------7---------------6------|--------5---------------4------|
  D|-------------------------------|-------------------------------|
  A|-------------------------------|-------------------------------|
  E|-------------------------------|-------------------------------|

  e|------- ------- ------- -------|------- ------- ------- -------|
  B|-------------------------------|-------------------------------|
  G|7----7--7----7--6----6---------|5----5--5----5--4--------------|
  D|------------------------7------|------------------------5------|
  A|-------------------------------|-------------------------------|
  E|-------------------------------|-------------------------------|



    B
  e|------- ------- ------- -------|
  B|-----7-------7-------7-------7-|
  G|-----8-------8-------8-------8-|
  D|-----9-------9-------9-------9-|
  A|-------------------------------|
  E|-------------------------------|

  e|------- ------- ------- -------|
  B|-------------------------------|
  G|4----4--4------------------4-4-|
  D|-------------------------------|
  A|-------------------------------|
  E|-------------------------------|



    02:12
         Em                              C               B
  e|------- ------- ------- -------|------- ------- ------- -------|
  B|-----8-------8-------8-------8-|-----8-------8-------7-------7-|
  G|-----9-------9-------9-------9-|-----9-------9-------8-------8-|
  D|-----9-------9-------9-------9-|----10------10-------9-------9-|
  A|-------------------------------|-------------------------------|
  E|-------------------------------|-------------------------------|  

  e|------- ------- ------- -------|------- ------- ------- -------|
  B|----------------5----5---------|-------------------------------|
  G|--------4----4----------4----4-|5----5----------4----4--4----4-|
  D|2----2-------------------------|--------5----5-----------------|
  A|-------------------------------|-------------------------------|
  E|-------------------------------|-------------------------------|




  e|------- ------- ------- -------|------- ------- ------- -------|
  B|-----8-------8-------8-------8-|-----8-------8-------7-------7-|
  G|-----9-------9-------9-------9-|-----9-------9-------8-------8-|   
  D|-----9-------9-------9-------9-|----10------10-------9-------9-|
  A|-------------------------------|-------------------------------|
  E|-------------------------------|-------------------------------|

  e|------- ------- ------- -------|------- ------- ------- -------|
  B|-------------------------------|-------------------------------|
  G|------------------------4----4-|5-------5----5--4-------4--4--4|
  D|2------------------------------|-------------------------------|
  A|-------------------------------|-------------------------------|
  E|-------------------------------|-------------------------------|




  e|------- ------- ------- -------|------- ------- ------- -------|
  B|-----8-------8-------8-------8-|-----8-------8-------7-------7-|
  G|-----9-------9-------9-------9-|-----9-------9-------8-------8-|
  D|-----9-------9-------9-------9-|----10------10-------9-------9-|
  A|-------------------------------|-------------------------------|
  E|-------------------------------|-------------------------------|

  e|------- ------- ------- -------|------- ------- ------- -------|
  B|5------------5--3--------------|-----3--5------------2--4------|
  G|-------------------------------|5------------5--4------------4-|
  D|-------------------------------|-------------------------------|
  A|-------------------------------|-------------------------------|
  E|-------------------------------|-------------------------------|




  e|------- ------- ------- -------|------- ------- ------- -------|
  B|-----8-------8-------8-------8-|-----8-------8-------7---------|
  G|-----9-------9-------9-------9-|-----9-------9-------8---------|
  D|-----9-------9-------9-------9-|----10------10-------9---------|
  A|-------------------------------|-------------------------------|
  E|-------------------------------|-------------------------------|

  e|------- ------- ------- -------|------- ------- ------- -------|
  B|5------------5--3------------3-|-----3--5----------------------|
  G|-------------------------------|5------------5--4-------4------|
  D|-------------------------------|-------------------------------|
  A|-------------------------------|-------------------------------|
  E|-------------------------------|-------------------------------|



   (.

  e|7------ ------- ------- -------|------- ------- ------- -------|
  B|8------------------------------|-------------------------------|
  G|9------------------------------|-------------------------------|
  D|9------------------------------|-------------------------------|
  A|-------------------------------|-------------------------------|
  E|-------------------------------|-------------------------------|

  e|------- ------- ------- -------|------- ------- ------- -------|
  B|5------------------------------|-------------------------------|
  G|-------------------------------|-------------------------------|
  D|-------------------------------|-------------------------------|
  A|-------------------------------|-------------------------------|
  E|-------------------------------|-------------------------------|

  e|---------------------------------------------------------------|
  B|---------------------------------------------------------------|
  G|-----------5-4-5-7-5-4--4----4-5-4-----------------------------|
  D|---------------------------7-------7-5-4-5-7-5-4-----4-5-------|
  A|-------------------------------------------------6-7-----------|
  E|---------------------------------------------------------------|








        B  Bend
        R  Release
        /  Slide up
        \  Slide down
        H  Hammer-on
        P  Pull-off
        ~  Vibrato
        +  Harmonic
        x  Mute note
        .  Play note like a dot in standard notation
        ^  Ties two notes together
        (. Pause




Tap to rate this tab
# A B C D E F G H I J K L M N O P Q R S T U V W X Y Z