Song name
# A B C D E F G H I J K L M N O P Q R S T U V W X Y Z

Beatles - Baby Youre A Rich Man tab

  ---------------------------------------------------------------

  THE BEATLES - BABY YOU'RE A RICH MAN (Lennon & McCartney) First 
                released as B side of ALL YOU NEED IS LOVE single 
                on 7th July 1967.
                
  ---------------------------------------------------------------

  Tabbed by:PJVillanueva






  How does it feel to be
  One of the beautiful people?

  Now that you know who you are
  What do you want to be?

  And have you travelled very far?
  Far as the eye can see

  How does it feel to be
  One of the beautiful people?

  How often have you been there?
  Often enough to know

  What did you see when you were there?
  Nothing that doesn't show

  Baby you're a rich man
  Baby you're a rich man
  Baby you're a rich man too
  You keep all your money in a big brown bag 
  Inside a zoo
  What a thing to do

  Baby you're a rich man
  Baby you're a rich man
  Baby you're a rich man too

  How does it feel to be
  One of the beautiful people?

  Tuned to a natural E
  Happy to be that way

  Now that you've found another key
  What are you going to play?

  Baby you're a rich man
  Baby you're a rich man
  Baby you're a rich man too
  You keep all your money in a big brown bag 
  Inside a zoo
  What a thing to do
  Baby you're a rich man ...





  This is mostly a piano tab but there is also a guitar part from
  01:14 on. In order to play that part you must tune low E string 
  to D.



                                     
  G                               C
e|------- ------- ------- -------|------- ------- ------- -------|
B|3------------------------------|5------------------------------|
G|4------------------------------|5------------------------------|
D|5------------------------------|5------------------------------|
A|-------------------------------|-------------------------------|
E|3-------3---3---3---3---3---3--|3---3---3---3---3---3---3---3--|




  G                               C
e|3------ 3------ ------- -------|3------ 3------ ------- -------|
B|3-------3----------------------|5-------5----------------------|
G|4-------4----------------------|5-------5----------------------|
D|-------------------------------|-------------------------------|
A|-------------------------------|-------------------------------|
E|3---3---3---3---3---3---3---3--|3-------3----------------------|




  G7                          C
e|1------ 1------ 1------ ----3--|----3-- ----3-- ------- 3------|
B|3-------3-------3-----------5--|----5-------5-----------5------|
G|0-------0-------0-----------5--|----5-------5-----------5------|
D|-------------------------------|-------------------------------|
A|-------------------------------|-------------------------------|
E|3-------3-------3-----------3--|----3-------3---3---3---3---3--|




  G7                              C
e|1------ ----1-- ------- -------|3------ 3------ ----3-- -------|
B|3-----------3------------------|5-------5-----------5----------|
G|0-----------0------------------|5-------5-----------5----------|
D|-------------------------------|5-------5-----------5----------|
A|-------------------------------|-------------------------------|
E|3---3---3---3---3---3---3---3--|3---3---3---3---3---3---3---3--|



  00:20

e|3------ 3------ ----3-- ----3--|3------ 3------ ------- 3------|
B|3-------3-----------3-------3--|5-------5---------------3------|
G|4-------4-----------4-------4--|5-------5---------------5------|
D|-------------------------------|-------------------------------|
A|-------------------------------|-------------------------------|
E|3-------3---3---3---3---3---3--|3---3---3---3---3---3---3------|
  How does    feel    to  be      one of  the beautiful 
          it



e|1------ 1------ 1------ 1------|1------ ------- ------- -------|
B|3-------3-------3-------3------|3------------------------------|
G|0-------0-------0-------0------|0------------------------------|
D|-------------------------------|-------------------------------|
A|-------------------------------|-------------------------------|
E|3-------3-------3-------3------|3-------3-------3---3---3---3--|
  people?                         Now that    know    who you are
                                          you


  Fadd9                           F               G7
e|1------ 1------ ------- -------|1------ 1------ 1------ 1------|  
B|1-------1----------------------|1-------1-------3-------3------|
G|2-------2----------------------|2-------2-------0-------0------|
D|-------------------------------|-------------------------------|
A|-------------------------------|-------------------------------|
E|3-------3-------3---3---3---3--|1---1---1---1---3-------3------|
                                  What    you want    to      be?
                                      do


  C       
e|0------ ------- ------- -------|
B|1------------------------------|
G|0------------------------------|
D|-------------------------------|
A|3-------3---3---3---3---3---3--|
E|-------------------------------|



  00:37
  G                               Fadd9
e|------- ------- ------- -------|------- ------- ------- -------|
B|3------------------------------|----1-----------1-------1------|
G|4------------------------------|----2-----------2-------2------|
D|5------------------------------|----3-----------3-------3------|
A|-------------------------------|-------------------------------|
E|3-------3-------3---3---3---3--|3-----------3-------3----------|
  And have    travelled   very 
          you                 far?


  F               G7              C           <
e|------- ------- 1------ 1------|0------ ----0-- 0---0-- 0---0--|
B|1-------1-------3-------3------|1-----------1---1---1---1---1--|
G|2-------2-------0-------0------|0-----------0---0---0---0---0--|
D|3-------3----------------------|-------------------------------|
A|-------------------------------|3------------------------------|
E|1-------1-------3-------3------|-------------------------------|
  Far as  the eye     can     see.



  00:47

e|3------ 3------ 3------ 3------|3------ ------- ------- -------|
B|3-------3-------3-------3------|5------------------------------|
G|4-------4-------4-------4------|5------------------------------|
D|-------------------------------|-------------------------------|
A|-------------------------------|-------------------------------|
E|3-------3-------3-------3------|3------------------------------|
  How does    feel    to  be      one of  the beautiful 
          it




e|3------ 3------ 3------ 3------|
B|3-------3-------3-------3------|
G|4-------4-------4-------4------|
D|-------------------------------|
A|-------------------------------|
E|3-------3-------3-------3------|
  people




e|3------ ------- ------- -------|------- ------- ------- -------|
B|3------------------------------|1-----------1------------------|
G|4------------------------------|2-----------2------------------|
D|-------------------------------|3-----------3------------------|
A|-------------------------------|-------------------------------|
E|3------------------------------|3-----------3---------------3--|
  How often   have    you been 
                              there?



e|------- ------- 1------ 1------|0------ ------- ------- -------|
B|1-------1-------3-------3------|1-------------------------1-1--|
G|2-------2-------0-------0------|0---------------------0-0------|
D|3-------3----------------------|-------------------------------|
A|-------------------------------|3-----------3---3---3----------|
E|1---1---1-------3-------3------|-------------------------------|
  Often   enough      to      know.



  01:04

e|------- ------- ------- -------|------- ------- ------- -------|
B|--------3---------------3------|1-----------1-------1-------1--|
G|--------4---------------4------|2-----------2-------2-------2--|
D|--------3---------------3------|3-----------3-------3-------3--|
A|-------------------------------|-------------------------------|
E|3---------------3-------3---1--|3-----------3-------3-------3--|
  What    you see     when  were 
      did                 you  there?



e|------- ------- 1------ 1------|0------ ------- 3---0-- -------|
B|1-------1-------3-------3------|1-----------------------1------|
G|2-------2-------0-------0------|0---------------------------0--|
D|3-------3----------------------|-------------------------------|
A|-------------------------------|3-----------3---3---3---3---3--|
E|1-------1-------3-------3------|-------------------------------|
  Nothing that                show.
              doesn't


  01:14

e|------- ------- ------- -------|------- ------- ------- -------|
B|--------3---------------6------|--------5---------------5------|
G|--------4---------------4------|--------5---------------5------|
D|--------5---------------5------|--------5---------------5------|
A|-------------------------------|3---3---3-------3---3---3---3--|
E|3---3---3-------3-------3------|-------------------------------|

e|------- ------- ------- -------|------- ------- ------- -------|
B|-------------------------------|-------------------------------|
G|-------------------------------|-------------------------------|
D|--------5----------------------|5-----5-7---------------6H8----|
A|------5---------------5-7---x--|3---------------x-----9-8------|
E|5---------------5--------------|-------------------------------|
  Baby    you're  rich    man     baby    you're  rich    man,
              a                               a



e|------- ------- ------- -------|------- ------- ------- -------|
B|--------3---------------3------|5-------5-------5-------5------|
G|--------4---------------4------|5-------5-------5-------5------|
D|--------5---------------5------|5-------5-------5-------5------|
A|-------------------------------|3---3---3-------3-------3------|
E|3-----------3---3---3----------|-------------------------------|

e|------- ------- ------- -------|------- ------- ------- -------|
B|-------------------------------|--------------0----------------|
G|-------------------------------|--------------0-3-------5---5--|
D|--------3----------------------|5-----5-7-------5-----5-7P5-7P5|
A|--------5-----3-------5-5------|3-------3----------------------|
E|5---------------5--------------|-------------------------------|
  Baby    you're  rich    man     too                         You
              a                               


  Bb6             G               C
e|3------ 3------ 3------ 3------|------- ------- ------- -------|
B|3-------3-------3-------3------|5---5-------5-------5---5------|
G|3-------3-------4-------4------|5---5-------5-------5---5------|
D|-------------------------------|5---5-------5-------5---5------|
A|1-------1-------2-------2------|3---3-------3-------3---3------|
E|-------------------------------|-------------------------------|

e|------- ------- ------- -------|------- ------- ------- -------|
B|-------------------------------|-------------------------------|
G|-------------------------------|-------------------------------|
D|------0------------------------|--------5H7-----5-------5H7-5--|
A|1------------------------------|------7---------------7--------|
E|--------x-------5---5---5---5--|5------------------------------|
  keep        your        in  a   big brown   bag     inside  a zoo
      all         money



e|1------ 1------ ----1-- -------|------- ------- ------- -------|
B|3-------3-----------3----------|5---5---5---5---5---5---5------|
G|0-------0-----------0----------|5---5---5---5---5---5---5------|
D|-------------------------------|5---5---5---5---5---5---5------|
A|-------------------------------|3---3---3---3---3---3---3------|
E|3-------3-----------3------3---|-------------------------------|

e|------- ------- ------- -------|------- ------- ------- -------|
B|-------------------------------|-------------------------------|
G|-------------------------------|----------------5---5---5---5--|
D|------3-3----------------------|--------5H7---3-5---5---5---5--|
A|------5-5----------------------|--------3-----3-3---3---3---3--|
E|5-----5-5-----x-5-------5---5--|-------------------------------| 
                      What    to
                        a thing do


  01:34                                                  

e|------- ------- ------- -------|------- ------- ------- -------|
B|3-------3-----------6-------6--|5-------5-----------5-------3--|
G|4-------4-----------4-------4--|5-------5-----------5-------4--|
D|5-------5-----------5-------5--|5-------5-----------5-------5--|
A|-------------------------------|3-------3-----------3----------|
E|3-------3-----------3-------3--|----------------------------3--|

e|------- ------- ------- -------|------- ------- ------- --3-\--|
B|-------------------------------|--------------------------3-\--|
G|-------------------------------|-------------------------------|
D|-------------------------------|------7-5H7-----------7-5------|
A|------5-5-------------5-5H7----|--------3----------------------|
E|5-----5-5-----x-5-----5-5---5--|-------------------------------|
  Baby    you're  rich    man     baby    you're  rich    man,
              a                               a


                                          <
e|------- ------- ------- -------|3------ 3---3-- 3---3-- 3---3--|
B|--------3-------6-------6------|5-------5---5---5---5---5---5--|
G|--------4-------4-------4------|5-------5---5---5---5---5---5--|
D|--------5-------5-------5------|-------------------------------|
A|-------------------------------|3-------3---3---3---3---3---3--|
E|--------3-------3-------3------|-------------------------------|
                                 
e|------- ------- ------- -------|------- ------- ------- -------|
B|-------------------------------|x------------------------------|
G|-------------------------------|x------------------------------|
D|-------------------------------|x------------------------------|
A|------5-7-----x-------7-5H7----|-------------------------------|
E|5-------5-------5-------5------|-------------------------------|
  Baby    you're  rich    man     too                    



  01:44

e|------- ------- ------- -------|------- ------- ------- -------|
B|3-----------3---3---3---3------|5-----------5---5---5---5------|
G|4-----------4---4---4---4------|5-----------5---5---5---5------|
D|5-----------5---5---5---5------|5-----------5---5---5---5------|
A|-------------------------------|-------------------------------|
E|3-----------3---3---3---3------|3-----------3---3---3---3------|

e|------- ------- ------- -------|------- ------- ------- -------|
B|-------------------------------|-------------------------------|
G|-------------------------------|-------------------------------|
D|-------------------------------|-------------------------------|
A|-------------------------------|-------------------------------|
E|5---5-5-5---5-5-5---5-5-5---5-5|5---5-5-5---5-5-5---5-5-5-5-5-0|
  How does    feel    to  be      one of  the beautiful 
          it



e|1------ 1------ 1------ 1------|
B|3-------3-------3-------3------|
G|0-------0-------0-------0------|
D|-------------------------------|
A|-------------------------------|
E|3-------3-------3-------3------|

e|------- ------- ------- -------|
B|-------------------------------|
G|-------------------------------|
D|-------------------------------|
A|-------------------------------|
E|5---5-5-5---5-5-5---5-5-5-5-5-0|
  people?                         




e|------- ------- ------- -------|------- ------- ------- -------|
B|3-----------3-------3---3------|1-----------1-----------1---1--|
G|4-----------4-------4---4------|2-----------2-----------2---2--|
D|5-----------5-------5---5------|3-----------3-----------3---3--|
A|-------------------------------|-------------------------------|
E|3-----------3-------3---3------|3-----------3-------3---3---3--|

e|------- ------- ------- -------|------- ------- ------- -------|
B|-------------------------------|-------------------------------|
G|-------------------------------|-------------------------------|
D|-------------------------------|-------------------------------|
A|-------------------------------|-------------------------------|
E|5---5---5---5-5-5---5-5-5---5-5|5-------5---5---5---5---5-5-5-\|
  Tuned   a   natural         E
     to  


                                          <
e|------- ------- ------- -------|------- ------- ------- -------|
B|1-------1-------3---3---3------|5---5---5---5---5---5---5---5--|
G|2-------2-------4---4---4------|5---5---5---5---5---5---5---5--|
D|3-------3-------5---5---5------|5---5---5---5---5---5---5---5--|
A|-------------------------------|3---3---3---3---3---3---3---3--|
E|1-------1-------3---3---3------|-------------------------------|

e|------- ------- ------- -------|------- ------- ------- -------|
B|-------------------------------|-------------------------------|
G|-------------------------------|-------------------------------|
D|--------1---------------3------|-------------------------------|
A|--------3---------------5------|1/3----------------------------|
E|3-------3-------3/5-----5------|-------------------------------|
  Happy   to  be      that    way 


  
  02:01
        
e|------- 1------ ----1-- -------|------- ------- ------- -------|
B|--------3-----------3----------|--------1-----------1-------1--|
G|--------0-----------0----------|--------2-----------2-------2--|
D|-------------------------------|--------3---3-------3-------3--|
A|-------------------------------|-------------------------------|
E|3-------3---3---3---3----------|3---3---3-------3-----------3--|

e|------- ------- ------- -------|------- ------- ------- -------|
B|-------------------------------|-------------------------------|
G|-------------------------------|-------------------------------|
D|-------------------------------|-------------------------------|
A|-------------------------------|-------------------------------|
E|5-----------5-5-5---5-5-5---5-5|5---5---5---0---5-5---5-5-5-5-5\
  Now that    found   another key
          you've



e|------- ------- ------- -------|0------ 0------ 3---0-- -------|
B|1-------1-------3-------3------|1-------1---------------1------|
G|2-------2-------4-------4------|0-------0-------------------0--|
D|3-------3-------5-------5------|-------------------------------|
A|-------------------------------|3-------3-------3---3---3---3--|
E|1---1---1-------3-------3------|-------------------------------|

e|------- ------- ------- -------|------- ------- ------- -------|
B|-------------------------------|-------------------------------|
G|-------------------------------|-------------------------------|
D|--------1---------------3------|-------------------------------|
A|--------3---------------5------|1/3----------------------------|
E|3-------3-----3-3/5-----5------|-------------------------------|
  What    you going   to      play?
      are


  02:11

e|------- 1------ ----1-- -------|------- ------- ------- -------|
B|--------3-----------3-------5--|--------5-----------5-------3--|
G|--------0-----------0-------5--|--------5-----------5-------4--|
D|----------------------------5--|--------5-----------5-------5--|
A|----------------------------3--|--------3-----------3----------|
E|--------3-----------3----------|----------------------------3--|

e|------- ------- ------- -------|------- ------- ------- -------|
B|-------------------------------|-------------------------------|
G|-------------------------------|-------------------------------|
D|-------------------------------|5-----5-5-------5-----5-7B8-7--|
A|------5-5H7---3-5-----5-5H7----|3-------3-------3--------------|
E|5-------5-------5-------5------|-------------------------------|
  Baby    you're  rich    man     baby    you're  rich    man,
              a                               a



e|------- ------- ------- -------|------- ------- ------- -------|
B|--------3-------3-------3------|5---5---5-------5-------5------|
G|--------4-------4-------4------|5---5---5-------5-------5------|
D|--------5-------5-------5------|5---5---5-------5-------5------|
A|-------------------------------|3---3---3-------3-------3------|
E|--------3-------3-------3------|-------------------------------|

e|------- ------- ------- -------|------- ------- ------- -------|
B|-------------------------------|-------------------------------|
G|-------------------------------|-------------------------------|
D|-------------------------------|5-----5-5H7---5-7B8-7B8-7B8-5--|
A|5-----5-7-------5-----5-x---x--|3-------3-----3-3---3---3---3--|
E|5-------5-------5-------x---x--|-------------------------------|
  Baby    you're  rich    man     too                         You
              a                               



e|3------ 3------ 3---3-- 3------|------- ------- ------- -------|
B|3-------3-------3---3---3------|5---5---5---5-------5---5------|
G|3-------3-------4---4---4------|5---5---5---5-------5---5------|
D|-------------------------------|5---5---5---5-------5---5------|
A|1-------1-------2---2---2------|3---3---3---3-------3---3------|
E|-------------------------------|-------------------------------|

e|------- ------- ------- -------|------- ------- ------- -------|
B|-------------------------------|-------------------------------|
G|-------------------------------|-----------------------------HP|
D|-------------------------------|5-------5H7-----5-----5-5H7-575|
A|--------5---------------------3|------7------------------------|
E|5---5-5-5-------5---5---5---5--|-------------------------------|
  keep        your        in  a   big brown   bag     inside  a zoo
          all     money




e|1------ 1------ 1---1-- ----1--|------- 3-3-3-3 3-----3 --3-3--|
B|3-------3-------3---3-------3--|5-------5-5-5-5-5-----5---5-5--|
G|0-------0-------0---0-------0--|5-------5-5-5-5-5-----5---5-5--|
D|-------------------------------|5------------------------------|
A|-------------------------------|3------------------------------|
E|3-------3---3---3---3-------3--|--------3-3-3-3-3-----3---3-3--|

e|------- ------- ------- -------|------- ------- ------- -------|
B|-------------------------------|-------------------------------|
G|--------------------4-4-4---4--|------------------------5------|
D|--------------------5-5-5---5--|5---7B8-7-----7B8-7-----5------|
A|5-----5-5H7---------5-5-5---5--|3------------------------------|
E|5-------5-------5--------------|-------------------------------|
                      What    to                      Baby
                        a thing do


  02:31

e|------- ------- ------- -------|------- ------- ------- -------|
B|3-------6---6---6-------6------|5-------5---5---5-------5---6--|
G|4-------4---4---4-------4------|5-------5---5---5-------5---4--|
D|5-------5---5---5-------5------|5-------5---5---5-------5---3--|
A|-------------------------------|3-------3---3---3-------3------|
E|3-------3---3---3-------3------|----------------------------3--|

e|------- ------- ------- -------|------- ------- ------- -------|
B|-------------------------------|-------------------------------|
G|-------------------------------|-------------------------------|
D|-------------------------------|5-----5-5H7---7B8-8-7---5P3----|
A|5-----5-7-----3-5-----5H7-5----|3-----------------------3------|
E|5-------------------------5----|-------------------------------|
  Baby    you're  rich    man     baby    you're  rich    man,
              a                               a



e|------- ------- ------- -------|------- ------- 3---3-- 3---3--|
B|----6---6-------6-------6------|5---------------5---5---5---5--|
G|----4---4-------4-------4------|5---------------5---5---5---5--|
D|----5---5-------5-------5------|5------------------------------|
A|-------------------------------|3---------------3---3---3---3--|
E|----3---3-------3-------3------|-------------------------------|

e|------- ------- ------- -------|------- ------- ------- -------|
B|-------------------------------|-------------------------------|
G|-------------------------------|-------------------------------|
D|-------------------------------|5---5---7-------5---5---7---7--|
A|------5H7-------5-------7------|3-------3-------3---3---3---3--|
E|--------5-------5-------5------|-------------------------------|
  Baby    you're  rich    man     too         Ooooooooooooohhhh                
              a                               


  02:40

e|1------ 1---1-- ----1-- ----1--|------- ------- ------- -------|
B|3-------3---3-------3-------3--|5-------5---5---5-------5------|
G|0-------0---0-------0-------0--|5-------5---5---5-------5------|
D|-------------------------------|5-------5---5---5-------5------|
A|-------------------------------|3-------3---3---3-------3------|
E|3-------3---3-------3-------3--|-------------------------------|

e|------- ------- ------- -------|------- ------- ------- -------|
B|-------------------------------|-------------------------------|
G|-------------------------------|-------------------------------|
D|-------------------------------|5-----5-5H7---5-5P3-5-----7-5--|
A|5-----5-5H7---5-5P3-----5H7----|-------------------------------|
E|5------------------------------|-------------------------------|
  Baby    you're  rich    man     baby    you're  rich    man,
              a                               a
                                                      Baby



e|1------ 1---1-- 1---1-- -------|------- ------- ------- -------|
B|3-------3---3---3---3-------5--|----5---5---5---5-------5---3--|
G|0-------0---0---0---0-------5--|----5---5---5---5-------5---4--|
D|----------------------------5--|----5---5---5---5-------5---5--|
A|----------------------------3--|----3---3---3---3-------3------|
E|3-------3---3---3---3----------|----------------------------3--|

e|------- ------- ------- -------|------- ------- ------- -------|
B|-------------------------------|-------------------------------|
G|-------------------------------|-------------------------------|
D|-------------------------------|5-------5H7---5---5H7---5------|
A|3-----3H5-----5H7-5H7---5---5H7|----------------------------7--|
E|-------------------------------|-------------------------------|
  Baby    you're  rich    man     too             Woooowwwwwwww                 
              a                               
  ......................................................  Woowwww



e|------- ------- ------- -------|------- ------- ------- -------| 
B|----3---3-------6-6---6-6---6--|----5---5---------5---5-5---3--|
G|----4---4-------4-4---4-4---4--|----5---5---------5---5-5---4--|
D|----5---5-------5-5---5-5---5--|----5---5---------5---5-5---5--|
A|-------------------------------|----3---3---------3---3-3------|
E|----3---3-------3-3---3-3---3--|----------------------------3--|

e|------- ------- ------- -------|------- ------- ------- -------|
B|-------------------------------|-------------------------------|
G|-------------------------------|-------------------------------|
D|-------------------------------|5-----5-5H7-----------7---5H7--|
A|5-----5H7-------------5-----5--|-------------------------------|
E|-------------------------------|-------------------------------|
  Baby    you're  rich    man     baby    you're  rich    man,
              a                               a
  .......................... Fade out ...........................



e|------- ------- ------- -------|------- ------- ------- -------|
B|----3---3---3---6-------6------|5------------------------------|
G|----4---4---4---4-------4------|5------------------------------|
D|----5---5---5---5-------5------|5------------------------------|
A|-------------------------------|3------------------------------|
E|----3---3---3---3-------3------|-------------------------------|

e|------- ------- ------- -------|------- ------- ------- -------|
B|-------------------------------|-------------------------------|
G|-------------------------------|-------------------------------|
D|-------------------------------|-------------------------------|
A|5-----5-5-5-----5-5---5---5-5--|-------------------------------|
E|-------------------------------|-------------------------------|
  Baby    you're  rich    man     too
  ...................................








        <  Crescendo
        B  Bend
        R  Release
        /  Slide up
        \  Slide down
        H  Hammer-on
        P  Pull-off
        ~  Vibrato
        +  Harmonic
        x  Mute note
        .  Play note like a dot in standard notation
        ^  Ties two notes together
        (. Pause




Tap to rate this tab
# A B C D E F G H I J K L M N O P Q R S T U V W X Y Z