Song name
# A B C D E F G H I J K L M N O P Q R S T U V W X Y Z

Beatles - Eleanor Rigby tab

    -----------------------------------------------------

    THE BEATLES - ELEANOR RIGBY (Lennon & McCartney) From 
                  REVOLVER album. Released on 25th August 
                  1966.
   
    -----------------------------------------------------

    Tabbed by:PJVillanueva






    George Martin used a string octet (4 violins, 2 violas 
    and 2 chelli) with a four part score from his own pen 
    for this song. It is a great and innovating theme, with 
    good lyrics, only a little somber, and it shows Martin's 
    good taste, fine ear and impressive arranging & writing 
    skills, by which he should have earned the credit of 
    "original cum creator" of Macca's piece. The lyrics were 
    a group effort. 


  
    Tune -Low E string down to lower C and -A string down to
    F to be able to play the chelli (you won't use those two
    strings to play the rest). I think that with a couple of
    guitars a great rendition of this song can be achieved.  






    Aaaah look at all the lonely people
    Aaaah look at all the lonely people

    Eleanor Rigby picks up the rice in the church 
    Where a wedding has been
    Lives in a dream

    Waits at the window 
    Wearing the face that she keeps in a jar by the door
    Who is it for?

    All the lonely people
    Where do they all come from?
    All the lonely people
    Where do they all belong?

    Father McKenzie writing the words of a sermon 
    That no one will hear
    No one comes near
 
    Look at him working 
    Darning his socks in the night when there's nobody there
    What does he care?

    All the lonely people
    Where do they all come from?
    All the lonely people
    Where do they all belong?

    Aaaah look at all the lonely people
    Aaaah look at all the lonely people

    Eleanor Rigby died in the church and was buried 
    Along with her name
    Nobody came

    Father McKenzie wiping the dirt from his hands 
    As he walks from the grave
    No one was saved

    All the lonely people
    Where do they all come from?
    All the lonely people
    Where do they all belong?






    C                              
  e|3------ 3------ 3------ 3------|3------ 3------ 3------ 3------|
  B|5-------5-------5-------5------|5-------5-------5-------5------|
  G|5-------5-------5-------5------|5-------5-------5-------5------|
  D|5-------5-------5-------5------|5-------5-------5-------5------|
  A|-------------------------------|-------------------------------|
  E|-------------------------------|-------------------------------|

  e|------- ------- ------- -------|------- ------- ------- -------|
  B|8------------------------------|-------------------------------|
  G|-------------------------------|-------------------------------|
  D|-------------------------------|-------------------------------|
  F|-------------------------------|-------------------------------|
  C|-------------------------------|-------------------------------|

  e|------- ------- ------- -------|------- ------- ------- -------|
  B|-------------------------------|-------------------------------|
  G|-------------------------------|-------------------------------|
  D|-------------------------------|-------------------------------|
  F|--------6---7------------------|-------------------------------|
  C|----7--------------------------|-------------------------------|
    Aaaaaaaaaaaaaaaah   look    all     the     lonely          people
                            at


    Em
  e|3------ 3------ 3------ 3------|3------ 3------ 3------ 3------|
  B|5-------5-------5-------5------|5-------5-------5-------5------|
  G|4-------4-------4-------4------|4-------4-------4-------4------|
  D|5-------5-------5-------5------|5-------5-------5-------5------|
  A|-------------------------------|-------------------------------|
  E|-------------------------------|-------------------------------|

  e|------- ------- ------- 5---7--|----7-- ----7-- ----7-- ----7--|
  B|-------------------------------|8-------7-------8-------5------|
  G|-------------------------------|-------------------------------|
  D|-------------------------------|-------------------------------|
  A|-------------------------------|-------------------------------|
  E|-------------------------------|-------------------------------|

  e|------- ------- ------- -------|------- ------- ------- -------|
  B|-------------------------------|-------------------------------|
  G|-------------------------------|-------------------------------|
  D|-------------------------------|-------------------------------|
  F|6-------6-4--------------------|-------------------------------|
  C|------------7---4--------------|-------------------------------|




    C
  e|3------ 3------ 3------ 3------|3------ 3------ 3------ 3------|
  B|5-------5-------5-------5------|5-------5-------5-------5------|
  G|5-------5-------5-------5------|5-------5-------5-------5------|
  D|5-------5-------5-------5------|5-------5-------5-------5------|
  A|-------------------------------|-------------------------------|
  E|-------------------------------|-------------------------------|

  e|------- ------- ------- -------|------- ------- ------- -------|
  B|8------------------------------|-------------------------------|
  G|-------------------------------|-------------------------------|
  D|-------------------------------|-------------------------------|
  F|-------------------------------|-------------------------------|
  C|-------------------------------|-------------------------------|

  e|------- ------- ------- -------|------- ------- ------- -------|
  B|-------------------------------|-------------------------------|
  G|-------------------------------|-------------------------------|
  D|-------------------------------|-------------------------------|
  F|----2--------------------------|-------------------------------|
  C|--------4---0------------------|-------------------------------|
    Aaaaaaaaaaaaaaaah   look    all     the     lonely          people
                            at


    Em
  e|3------ 3------ 3------ 3------|3------ 3------ 3------ 3------|
  B|5-------5-------5-------5------|5-------5-------5-------5------|
  G|4-------4-------4-------4------|4-------4-------4-------4------|
  D|5-------5-------5-------5------|5-------5-------5-------5------|
  A|-------------------------------|-------------------------------|
  E|-------------------------------|-------------------------------|

  e|------- ------- ------- 5---7--|----7-- ----7-- ----7-- ----7--|
  B|-------------------------------|8-------7-------8-------5------|
  G|-------------------------------|-------------------------------|
  D|-------------------------------|-------------------------------|
  A|-------------------------------|-------------------------------|
  E|-------------------------------|-------------------------------|

  e|------- ------- ------- -------|------- ------- ------- -------|
  B|-------------------------------|-------------------------------|
  G|-------------------------------|-------------------------------|
  D|-------------------------------|-------------------------------|
  F|----6--------------------------|-------------------------------|
  C|--------7---4------------------|-------------------------------|



    00:14

  e|3------ 3------ 3------ 3------|3------ 3------ 3------ 3------|
  B|5-------5-------5-------5------|5-------5-------5-------5------|
  G|4-------4-------4-------4------|4-------4-------4-------4------|
  D|5-------5-------5-------5------|5-------5-------5-------5------|
  A|-------------------------------|-------------------------------|
  E|-------------------------------|-------------------------------|

  e|------- ------- ------- -------|------- ------- ------- -------|
  B|-------------------------------|-------------------------------|
  G|-------------------------------|-------------------------------|
  D|-------------------------------|-------------------------------|
  F|-------------------------------|-------------------------------|
  C|4-------4-------4-------4------|4-------4-------4-------4------|
    Eleanor     Rigby               picks   the rice    in  the church 
                                        up


                                    C
  e|3------ 3------ 3------ 3------|3------ 3------ 3------ 3------|
  B|5-------5-------5-------5------|5-------5-------5-------5------|
  G|4-------4-------4-------4------|5-------5-------5-------5------|
  D|5-------5-------5-------5------|5-------5-------5-------5------|
  A|-------------------------------|-------------------------------|
  E|-------------------------------|-------------------------------|

  e|------- ------- ------- -------|------- ------- ------- -------|
  B|-------------------------------|-------------------------------|
  G|-------------------------------|-------------------------------|
  D|-------------------------------|-------------------------------|
  F|-------------------------------|----------------7--------------|
  C|4-------4-------4-------4------|0-------7---------------7------|  
        where   wedding     has been
            a


                    Em
  e|3------ 3------ 3------ 3------|
  B|5-------5-------5-------5------|
  G|5-------5-------4-------4------|
  D|5-------5-------5-------5------|
  A|-------------------------------|
  E|-------------------------------|

  e|------- ------- ------- -------|
  B|-------------------------------|
  G|-------------------------------|
  D|-------------------------------|
  F|-------------------------------|
  C|0-------0-------4-------4------|
    Lives   a   dream
        in

    
    00:23

  e|3------ 3------ 3------ 3------|3------ 3------ 3------ 3------|
  B|5-------5-------5-------5------|5-------5-------5-------5------|
  G|4-------4-------4-------4------|4-------4-------4-------4------|
  D|5-------5-------5-------5------|5-------5-------5-------5------|
  A|-------------------------------|-------------------------------|
  E|-------------------------------|-------------------------------|

  e|----7-- ----7-- ----7-- ----7--|----7-- ----7-- ----7-- ----7--| 
  B|5-------5-------5-------5------|5-------5-------5-------5------|
  G|-------------------------------|-------------------------------|
  D|-------------------------------|-------------------------------|
  A|-------------------------------|-------------------------------|
  E|-------------------------------|-------------------------------|

  e|------- ------- ------- -------|------- ------- ------- -------| 
  B|-------------------------------|-------------------------------|
  G|-------------------------------|-------------------------------|
  D|-------------------------------|-------------------------------|
  F|-------------------------------|-------------------------------|
  C|4-------4-------4-------4------|4-------4-------4-------4------|
    Waits  the  window,             wearing the face    that    keeps 
        at                                                  she



  e|3------ 3------ 3------ 3------|3------ 3------ 3------ 3------| 
  B|5-------5-------5-------5------|5-------5-------5-------5------|
  G|4-------4-------4-------4------|5-------5-------5-------5------|
  D|5-------5-------5-------5------|5-------5-------5-------5------|
  A|-------------------------------|-------------------------------|
  E|-------------------------------|-------------------------------|

  e|----7-- ----7-- ----7-- ----7--|8---8-- 8---8-- 8---8-- 8---8--| 
  B|5-------5-------5-------5------|-------------------------------|
  G|-------------------------------|-------------------------------|
  D|-------------------------------|-------------------------------|
  A|-------------------------------|-------------------------------|
  E|-------------------------------|-------------------------------|

  e|------- ------- ------- -------|------- ------- ------- -------|
  B|-------------------------------|-------------------------------|
  G|-------------------------------|----------------5--------------|
  D|-------------------------------|--------5---------------5------|  
  A|-------------------------------|7------------------------------| 
  E|-------------------------------|-------------------------------|  

  e|------- ------- ------- -------|------- ------- ------- -------| 
  B|-------------------------------|-------------------------------|
  G|-------------------------------|-------------------------------|
  D|-------------------------------|-------------------------------|  
  F|-------------------------------|-------------------------------|
  C|4-------4-------2-------2------|0-------0-------0-------0------|  
        in  a  jar      by  the door




  e|3------ 3------ 3------ 3------|
  B|5-------5-------5-------5------|
  G|5-------5-------4-------4------|
  D|5-------5-------5-------5------|
  A|-------------------------------|
  E|-------------------------------|

  e|8---8-- 8---8-- ----7-- ----7--|
  B|----------------5-------5------|
  G|-------------------------------|
  D|-------------------------------|
  A|-------------------------------|
  E|-------------------------------|

  e|------- ------- ------- -------|
  B|-------------------------------|
  G|-------------------------------|
  D|--------0-------2-------2------|
  F|7------------------------------|
  C|-------------------------------|

  e|------- ------- ------- -------|
  B|-------------------------------|
  G|-------------------------------|
  D|-------------------------------|
  F|-------------------------------|
  C|0-------2-------4-------4------|
    Who is  it  for?



    00:32
   (Em)
  e|7------ 7------ 7------ 7------|7------ 7------ 7------ 7------|  
  B|8-------8-------8-------8------|8-------8-------8-------8------|
  G|9-------9-------9-------9------|9-------9-------9-------9------|
  D|-------------------------------|-------------------------------|
  A|-------------------------------|-------------------------------|
  E|-------------------------------|-------------------------------|
    Em7                             Em6
  e|------- ------- ------- -------|------- ------- ------- -------|
  B|-------------------------------|-------------------------------|
  G|7------------------------------|6------------------------------|
  D|-------------------------------|-------------------------------|
  A|-------------------------------|-------------------------------|
  E|-------------------------------|-------------------------------|

  e|------- ------- ------- -------|------- ------- ------- -------|
  B|-------------------------------|-------------------------------|
  G|-------------------------------|-------------------------------|
  D|2------------------------------|2------------------------------|
  F|-------------------------------|-------------------------------|
  C|-------------------------------|-------------------------------|

  e|------- ------- ------- -------|------- ------- ------- -------|
  B|-------------------------------|-------------------------------|
  G|-------------------------------|-------------------------------|
  D|-------------------------------|-------------------------------|
  F|-------------------------------|-------------------------------|
  C|4------------------------------|4------------------------------|
    All     the lonely          people                      Where
                                                                do



  e|7------ 7------ 7------ 7------|7------ 7------ 7------ 7------|
  B|8-------8-------8-------8------|8-------8-------8-------8------|
  G|9-------9-------9-------9------|9-------9-------9-------9------|
  D|-------------------------------|-------------------------------|
  A|-------------------------------|-------------------------------|
  E|-------------------------------|-------------------------------|
    Em+5                            Em
  e|------- ------- ------- -------|------- ------- ------- -------|
  B|-------------------------------|-------------------------------|
  G|5------------------------------|4------------------------------|
  D|-------------------------------|-------------------------------|
  A|-------------------------------|-------------------------------|
  E|-------------------------------|-------------------------------|

  e|------- ------- ------- -------|------- ------- ------- -------|
  B|-------------------------------|-------------------------------|
  G|-------------------------------|-------------------------------|
  D|2------------------------------|2------------------------------|
  F|-------------------------------|-------------------------------|
  C|-------------------------------|-------------------------------|

  e|------- ------- ------- -------|------- ------- ------- -------|
  B|-------------------------------|-------------------------------|
  G|-------------------------------|-------------------------------|
  D|-------------------------------|-------------------------------|
  F|-------------------------------|-------------------------------|
  C|4------------------------------|4------------------------------|
            they        come    from
                all


    00:39

  e|7------ 7------ 7------ 7------|7------ 7------ 7------ 7------|
  B|8-------8-------8-------8------|8-------8-------8-------8------|
  G|9-------9-------9-------9------|9-------9-------9-------9------|
  D|-------------------------------|-------------------------------|
  A|-------------------------------|-------------------------------|
  E|-------------------------------|-------------------------------|

  e|------- ------- ------- -------|------- ------- ------- -------|
  B|-------------------------------|-------------------------------|
  G|7------------------------------|6------------------------------|
  D|-------------------------------|-------------------------------|
  A|-------------------------------|-------------------------------|
  E|-------------------------------|-------------------------------|

  e|------- ------- ------- -------|------- ------- ------- -------|
  B|-------------------------------|-------------------------------|
  G|-------------------------------|-------------------------------|
  D|2------------------------------|2------------------------------|
  F|-------------------------------|-------------------------------|
  C|-------------------------------|-------------------------------|

  e|------- ------- ------- -------|------- ------- ------- -------|
  B|-------------------------------|-------------------------------|
  G|-------------------------------|-------------------------------|
  D|-------------------------------|-------------------------------|
  F|-------------------------------|-------------------------------|
  C|4------------------------------|4------------------------------|
    All     the lonely          people                      Where
                                                                do



  e|7------ 7------ 7------ 7------|7------ 7------ 7------ 7------|
  B|8-------8-------8-------8------|8-------8-------8-------8------|
  G|9-------9-------9-------9------|9-------9-------9-------9------|
  D|-------------------------------|-------------------------------|
  A|-------------------------------|-------------------------------|
  E|-------------------------------|-------------------------------|

  e|------- ------- ------- -------|------- ------- ------- -------|
  B|-------------------------------|-------------------------------|
  G|5------------------------------|4------------------------------|
  D|-------------------------------|-------------------------------|
  A|-------------------------------|-------------------------------|
  E|-------------------------------|-------------------------------|

  e|------- ------- ------- -------|15-~--- 12----- ------- -------|
  B|----------------------------12-|------------12-----------------|
  G|-------------------------------|--------------------14------12-~
  D|2------------------------------|-------------------------------|
  A|-------------------------------|-------------------------------|
  E|-------------------------------|-------------------------------|


  e|------- ------- ------- -------|------- ------- ------- -------|
  B|-------------------------------|-------------------------------|
  G|-------------------------------|-------------------------------|
  D|-------------------------------|-------------------------------|
  F|-------------------------------|-------------------------------|
  C|4------------------------------|4------------------------------|

            they        belong?
                all


    00:46
                                                                    
  e|3------ 3------ 3------ 3------|3------ 3------ 3------ 3------|
  B|5-------5-------5-------5------|5-------5-------5-------5------|
  G|4-------4-------4-------4------|4-------4-------4-------4------|
  D|5-------5-------5-------5------|5-------5-------5-------5------|
  A|-------------------------------|-------------------------------|
  E|-------------------------------|-------------------------------|

  e|------- ------- ------- -------|------- ------- ------- -------| 
  B|-------------------------------|-------------------------------|
  G|-------------------------------|-------------------------------|
  D|-------------------------------|-------------------------------|
  F|-------------------------------|-------------------------------|
  C|4-------4-------4-------4------|4-------4-------4-------4------|
    Father  McKenzie                writing the words   of  a   sermon




  e|3------ 3------ 3------ 3------|3------ 3------ 3------ 3------|
  B|5-------5-------5-------5------|5-------5-------5-------5------|
  G|4-------4-------4-------4------|5-------5-------5-------5------|
  D|5-------5-------5-------5------|5-------5-------5-------5------|
  A|-------------------------------|-------------------------------|
  E|-------------------------------|-------------------------------|

  e|------- ------- ------- -------|------- ------- ------- -------|
  B|-------------------------------|-------------------------------|
  G|-------------------------------|-------------------------------|
  D|-------------------------------|-------------------------------|
  F|-------------------------------|------------1---2---4---6---7--|
  C|4-------4-------4-------4------|0---2---4----------------------|
            That        one will
                no              hear



  e|3------ 3------ 3------ 3------|
  B|5-------5-------5-------5------|
  G|5-------5-------4-------4------|
  D|5-------5-------5-------5------|
  A|-------------------------------|
  E|-------------------------------|

  e|------- ------- ------- -------|
  B|-------------------------------|
  G|-------------------------------|
  D|------------2------------------|
  F|-------------------------------|
  C|-------------------------------|
    No  one comes 
                near

    
    00:55

  e|3------ 3------ 3------ 3------|3------ 3------ 3------ 3------|
  B|5-------5-------5-------5------|5-------5-------5-------5------|
  G|4-------4-------4-------4------|4-------4-------4-------4------|
  D|5-------5-------5-------5------|5-------5-------5-------5------|
  A|-------------------------------|-------------------------------|
  E|-------------------------------|-------------------------------|

  e|------- ------- ------- -------|------- ------- ------- -------|
  B|------------------------5---7--|8-----------7---------------5--|
  G|--------------------4----------|-------------------------------|
  D|-------------------------------|-------------------------------|
  A|-------------------------------|-------------------------------|
  E|-------------------------------|-------------------------------|

  e|------- ------- ------- -------|------- ------- ------- -------| 
  B|-------------------------------|-------------------------------|
  G|-------------------------------|-------------------------------|
  D|-------------------------------|-------------------------------|
  F|-------------------------------|-------------------------------|
  C|4-------4-------4-------4------|4-------4-------4-------4------|  

    Look    him working             Darning his socks   in  the night
        at



  e|3------ 3------ 3------ 3------|3------ 3------ 3------ 3------|
  B|5-------5-------5-------5------|5-------5-------5-------5------|
  G|4-------4-------4-------4------|5-------5-------5-------5------|
  D|5-------5-------5-------5------|5-------5-------5-------5------|
  A|-------------------------------|-------------------------------|
  E|-------------------------------|-------------------------------|

  e|------- ------- ------- -------|------- ------- ------- -------|
  B|------------3---------------5--|-------------------------------|
  G|-------------------------------|-------------------------------|
  D|-------------------------------|-------------------------------|
  A|-------------------------------|-------------------------------|
  E|-------------------------------|-------------------------------|

  e|------- ------- ------- -------|------- ------- ------- -------|
  B|-------------------------------|-------------------------------|
  G|-------------------------------|-------------------------------|
  D|-------------------------------|-------------------------------|
  F|-------------------------------|------------1---2---4---6---7--|
  C|4-------4-------4-------4------|0---2---4----------------------|
        when    nobody          there
            there's



  e|3------ 3------ 3------ 3------|
  B|5-------5-------5-------5------|
  G|5-------5-------4-------4------|
  D|5-------5-------5-------5------|
  A|-------------------------------|
  E|-------------------------------|

  e|------- ------- ------- -------|
  B|5---7---8----------------------|
  G|-------------------------------|
  D|-------------------------------|
  A|-------------------------------|
  E|-------------------------------|

  e|------- ------- ------- -------|
  B|-------------------------------|
  G|-------------------------------|
  D|------------2------------------|
  F|-------------------------------|
  C|-------------------------------|
    What    he  care?
        does


    01:03

  e|7------ 7------ 7------ 7------|7------ 7------ 7------ 7------|
  B|8-------8-------8-------8------|8-------8-------8-------8------|
  G|9-------9-------9-------9------|9-------9-------9-------9------|
  D|-------------------------------|-------------------------------|
  A|-------------------------------|-------------------------------|
  E|-------------------------------|-------------------------------|

  e|------- ------- ------- -------|------- ------- ------- -------|
  B|-------------------------------|-------------------------------|
  G|7------------------------------|6------------------------------|
  D|-------------------------------|-------------------------------|
  A|-------------------------------|-------------------------------|
  E|-------------------------------|-------------------------------|

  e|------- ------- ------- -------|------- ------- ------- -------|
  B|-------------------------------|-------------------------------|
  G|-------------------------------|-------------------------------|
  D|2------------------------------|2------------------------------|
  F|-------------------------------|-------------------------------|
  C|-------------------------------|-------------------------------|
    All     the lonely          people                      Where
                                                                do



  e|7------ 7------ 7------ 7------|7------ 7------ 7------ 7------|
  B|8-------8-------8-------8------|8-------8-------8-------8------|
  G|9-------9-------9-------9------|9-------9-------9-------9------|
  D|-------------------------------|-------------------------------|
  A|-------------------------------|-------------------------------|
  E|-------------------------------|-------------------------------|

  e|------- ------- ------- -------|------- ------- ------- -------|
  B|-------------------------------|-------------------------------|
  G|5------------------------------|4------------------------------|
  D|-------------------------------|-------------------------------|
  A|-------------------------------|-------------------------------|
  E|-------------------------------|-------------------------------|

  e|------- ------- ------- -------|------- 14----- 15----- 17-----|
  B|-------------------------------|17-~---------------------------| 
  G|-------------------------------|-------------------------------|
  D|-------------------------------|-------------------------------|
  A|-------------------------------|-------------------------------|
  E|-------------------------------|-------------------------------|

  e|------- ------- ------- -------|------- ------- ------- -------|
  B|-------------------------------|-------------------------------|
  G|-------------------------------|-------------------------------|
  D|2------------------------------|2------------------------------|
  F|-------------------------------|-------------------------------|
  C|-------------------------------|-------------------------------|
            they        come    from?
                all


    01:10

  e|7------ 7------ 7------ 7------|7------ 7------ 7------ 7------|
  B|8-------8-------8-------8------|8-------8-------8-------8------|
  G|9-------9-------9-------9------|9-------9-------9-------9------|
  D|-------------------------------|-------------------------------|
  A|-------------------------------|-------------------------------|
  E|-------------------------------|-------------------------------|

  e|------- ------- ------- -------|------- ------- ------- -------|
  B|-------------------------------|-------------------------------|
  G|7------------------------------|6------------------------------|
  D|-------------------------------|-------------------------------|
  A|-------------------------------|-------------------------------|
  E|-------------------------------|-------------------------------|

  e|19-~--- ------- ------- -------|------- ------- ------- -------|  
  B|-------------------------------|-------------------------------|
  G|-------------------------------|-------------------------------|
  D|-------------------------------|-------------------------------|
  A|-------------------------------|-------------------------------|
  E|-------------------------------|-------------------------------|

  e|------- ------- ------- -------|------- ------- ------- -------|
  B|-------------------------------|-------------------------------|
  G|-------------------------------|-------------------------------|
  D|2------------------------------|2------------------------------|
  F|-------------------------------|-------------------------------|
  C|-------------------------------|-------------------------------|
    All     the lonely          people                      Where
                                                                do



  e|7------ 7------ 7------ 7------|7------ 7------ 7------ 7------|
  B|8-------8-------8-------8------|8-------8-------8-------8------|
  G|9-------9-------9-------9------|9-------9-------9-------9------|
  D|-------------------------------|-------------------------------|
  A|-------------------------------|-------------------------------|
  E|-------------------------------|-------------------------------|

  e|------- ------- ------- -------|------- ------- ------- -------|
  B|-------------------------------|-------------------------------|
  G|5------------------------------|4------------------------------|
  D|-------------------------------|-------------------------------|
  A|-------------------------------|-------------------------------|
  E|-------------------------------|-------------------------------|

  e|------- ------- ------- -------|15-~--- 12----- ------- -------|  
  B|----------------------------12-|------------12-----------------|
  G|-------------------------------|--------------------14------12-~
  D|-------------------------------|-------------------------------|
  A|-------------------------------|-------------------------------|
  E|-------------------------------|-------------------------------|

  e|------- ------- ------- -------|------- ------- ------- -------|
  B|-------------------------------|-------------------------------|
  G|-------------------------------|-------------------------------|
  D|2------------------------------|2------------------------------|
  F|-------------------------------|-------------------------------|
  C|-------------------------------|-------------------------------|
            they        belong?
                all


    01:17

  e|3------ 3------ 3------ 3------|3------ 3------ 3------ 3------| 
  B|5-------5-------5-------5------|5-------5-------5-------5------|
  G|5-------5-------5-------5------|5-------5-------5-------5------|
  D|5-------5-------5-------5------|5-------5-------5-------5------|
  A|-------------------------------|-------------------------------|
  E|-------------------------------|-------------------------------|

  e|------- ------- ------- -------|------- ------- ------- -------|
  B|-------------------------------|-------------------------------|
  G|-------------------------------|-------------------------------|
  D|-------------------------------|-------------------------------|
  F|--------6---7------------------|-------------------------------|
  C|----7--------------------------|-------------------------------|
    Aaaaaaaaaaaaaaaah   look    all     the     lonely          people
                            at



  e|3------ 3------ 3------ 3------|3------ 3------ 3------ 3------|
  B|5-------5-------5-------5------|5-------5-------5-------5------|
  G|4-------4-------4-------4------|4-------4-------4-------4------|
  D|5-------5-------5-------5------|5-------5-------5-------5------|
  A|-------------------------------|-------------------------------|
  E|-------------------------------|-------------------------------|

  e|------- ------- ------- 5---7--|----7-- ----7-- ----7-- ----7--|
  B|-------------------------------|8-------7-------8-------5------|
  G|-------------------------------|-------------------------------|
  D|-------------------------------|-------------------------------|
  A|-------------------------------|-------------------------------|
  E|-------------------------------|-------------------------------|

  e|------- ------- ------- -------|------- ------- ------- -------|
  B|-------------------------------|-------------------------------|
  G|-------------------------------|-------------------------------|
  D|-------------------------------|-------------------------------|
  F|6-------6-4--------------------|-------------------------------|
  C|------------7---4--------------|-------------------------------|





  e|3------ 3------ 3------ 3------|3------ 3------ 3------ 3------|
  B|5-------5-------5-------5------|5-------5-------5-------5------|
  G|5-------5-------5-------5------|5-------5-------5-------5------|
  D|5-------5-------5-------5------|5-------5-------5-------5------|
  A|-------------------------------|-------------------------------|
  E|-------------------------------|-------------------------------|

  e|------- ------- ------- -------|------- ------- ------- -------|
  B|8------------------------------|-------------------------------|
  G|-------------------------------|-------------------------------|
  D|-------------------------------|-------------------------------|
  A|-------------------------------|-------------------------------|
  E|-------------------------------|-------------------------------|

  e|------- ------- ------- -------|------- ------- ------- -------|
  B|-------------------------------|-------------------------------|
  G|-------------------------------|-------------------------------|
  D|-------------------------------|-------------------------------|
  F|----2--------------------------|-------------------------------|
  C|--------4---0------------------|-------------------------------|
    Aaaaaaaaaaaaaaaah   look    all     the     lonely          people
                            at



  e|3------ 3------ 3------ 3------|3------ 3------ 3------ 3------|
  B|5-------5-------5-------5------|5-------5-------5-------5------|
  G|4-------4-------4-------4------|4-------4-------4-------4------|
  D|5-------5-------5-------5------|5-------5-------5-------5------|
  A|-------------------------------|-------------------------------|
  E|-------------------------------|-------------------------------|

  e|------- ------- ------- 5---7--|----7-- ----7-- ----7-- ----7--|
  B|-------------------------------|8-------7-------8-------5------|
  G|-------------------------------|-------------------------------|
  D|-------------------------------|-------------------------------|
  A|-------------------------------|-------------------------------|
  E|-------------------------------|-------------------------------|

  e|------- ------- ------- -------|------- ------- ------- -------|
  B|-------------------------------|-------------------------------|
  G|-------------------------------|-------------------------------|
  D|-------------------------------|-------------------------------|
  F|----6--------------------------|-------------------------------|
  C|--------7---4------------------|-------------------------------|




    01:31                                      

  e|------- ------- ------- -------|------- ------- ------- -------|
  B|-------------------------------|------------12--------------10-|
  G|-------------------------------|-------------------------------|
  D|-------------------------------|-------------------------------|
  A|-------------------------------|-------------------------------|
  E|-------------------------------|-------------------------------|

  e|12-~--- ------- ------- -------|------- ------- ------- -------|
  B|-------------------------------|-------------------------------|
  G|-------------------------------|-------------------------------|
  D|-------------------------------|-------------------------------|
  A|-------------------------------|-------------------------------|
  E|-------------------------------|-------------------------------|

  e|------- ------- ------- -------|------- ------- ------- -------|
  B|--------5-----------5----------|--------5-----------5----------|
  G|----4-----------4-----------4--|----4-----------4-----------4--|
  D|2-----------2-----------2------|2-----------2-----------2------|
  A|-------------------------------|-------------------------------|
  E|-------------------------------|-------------------------------|

  e|------- ------- ------- -------|------- ------- ------- -------| 
  B|-------------------------------|-------------------------------| 
  G|-------------------------------|-------------------------------|
  D|-------------------------------|-------------------------------|
  F|-------------------------------|-------------------------------|
  C|4-------4---4---4-------4---4--|4-------4---4---4-------4---4--|  
    Eleanor     Rigby               died    the church  and was buried 
                                        in



  e|------- ------- ------- -------|------- ------- ------- -------| 
  B|----------------------------10-~-------------------------------|
  G|------------12-----------------|-------------------------------|
  D|----------------------------10-~-------------------------------|
  A|-------------------------------|-------------------------------|
  E|-------------------------------|-------------------------------|

  e|------- ------- ------- -------|------- ------- ------- -------| 
  B|--------5-----------5----------|--------5-----------5----------|
  G|----4-----------4-----------4--|----2-----------2-----------2--|
  D|2-----------2-----------2------|2-----------2-----------2------|
  A|-------------------------------|-------------------------------|
  E|-------------------------------|-------------------------------|

  e|------- ------- ------- -------|------- ------- ------- -------|  
  B|-------------------------------|-------------------------------|
  G|-------------------------------|-------------------------------|
  D|-------------------------------|-------------------------------|
  F|-------------------------------|-------------------------------|
  C|4-------4---4---4-------4------|0-------0-------0-------0------|
            Along       with    name
                            her



  e|------- ----12- ------- -------|
  B|-------------------------------|
  G|-------------------------------|
  D|-------------------------------|
  A|-------------------------------|
  E|-------------------------------|

  e|------- ------- ------- -------|
  B|-------------------------------|
  G|------------9------------------|
  D|10-----------------------------|
  A|-------------------------------|
  E|-------------------------------|

  e|------- ------- ------- -------|
  B|--------5-----------5----------|
  G|----2-----------2-----------4--|
  D|2-----------2-----------2------|
  A|-------------------------------|
  E|-------------------------------|

  e|------- ------- ------- -------| 
  B|-------------------------------|
  G|-------------------------------|
  D|-------------------------------|
  F|-------------------------------|
  C|0-------0-------4-------4------|
    Nobody      came



    01:40 

  e|12----- 12----- 12----- 12-----|12----- 12----- 12----- 12-----|
  B|12------12------12------12-----|12----- 12----- 12----- 12-----|
  G|-9-------9-------9-------9-----|-9-------9-------9-------9-----|
  D|-------------------------------|-------------------------------|
  A|-------------------------------|-------------------------------|
  E|-------------------------------|-------------------------------|

  e|------- ------- ------- -------|------- ------- ------- -------|
  B|-------------------------------|------------3-------2---0---2--|
  G|-------------------------------|0---2---4----------------------|
  D|------------------------2---4--|-------------------------------|
  F|--------------------6----------|-------------------------------|
  C|-------------------------------|-------------------------------|
    Father  McKenzie                wiping  the dirt    from    hands 
                                                            his



  e|12----- 12----- 12----- 12-----|12----- 12----- 12----- 12-----|
  B|12----- 12----- 12----- 12-----|13------13------13------13-----|
  G|-9-------9-------9-------9-----|14------14------14------14-----|
  D|-------------------------------|-------------------------------|
  A|-------------------------------|-------------------------------|
  E|-------------------------------|-------------------------------|

  e|------- ------- ------- -------|------- ------- ------- -------|
  B|----0-------0------------------|-------------------------------|
  G|--------2-----------2---0---2--|-------------------------------|
  D|-------------------------------|--------------------2-------2--|
  F|-------------------------------|------------------------4------|
  C|-------------------------------|-------------------------------|
        as  he  walks   from    grave
                            the  



  e|12----- 12----- 12----- 12-----|
  B|13------13------12------12-----|
  G|14------14-------9-------9-----|
  D|-------------------------------|
  A|-------------------------------|
  E|-------------------------------|

  e|------- ------- ------- -------|
  B|-------------------------------|
  G|-------------------------------|
  D|----------------2--------------|
  F|4------------------------------|
  C|----------------4--------------|
    No  one was saved



    01:48                                                     

  e|7------ 7------ 7------ 7------|7------ 7------ 7------ 7------|
  B|8-------8-------8-------8------|8-------8-------8-------8------|
  G|9-------9-------9-------9------|9-------9-------9-------9------|
  D|-------------------------------|-------------------------------|
  A|-------------------------------|-------------------------------|
  E|-------------------------------|-------------------------------|

  e|------- ------- ------- -------|------- ------- ------- -------|
  B|-------------------------------|-------------------------------|
  G|7------------------------------|6------------------------------|
  D|-------------------------------|-------------------------------|
  A|-------------------------------|-------------------------------|
  E|-------------------------------|-------------------------------|

  e|------- ------- ------- -------|------- ------- ------- -------|
  B|-------------------------------|-------------------------------|
  G|-------------------------------|-------------------------------|
  D|2------------------------------|2------------------------------|
  F|-------------------------------|-------------------------------|
  C|-------------------------------|-------------------------------|

  e|------- ------- ------- -------|------- ------- ------- -------|
  B|-------------------------------|-------------------------------|
  G|-------------------------------|-------------------------------|
  D|-------------------------------|-------------------------------|
  F|-------------------------------|-------------------------------|
  C|4------------------------------|4------------------------------|
    All     the lonely          people                      Where
                                                                do



  e|7------ 7------ 7------ 7------|7------ 7------ 7------ 7------|
  B|8-------8-------8-------8------|8-------8-------8-------8------|
  G|9-------9-------9-------9------|9-------9-------9-------9------|
  D|-------------------------------|-------------------------------|
  A|-------------------------------|-------------------------------|
  E|-------------------------------|-------------------------------|

  e|------- ------- ------- -------|------- ------- ------- -------|
  B|-------------------------------|-------------------------------|
  G|5------------------------------|4------------------------------|
  D|-------------------------------|-------------------------------|
  A|-------------------------------|-------------------------------|
  E|-------------------------------|-------------------------------|

  e|------- ------- ------- -------|------- ------- ------- -------|
  B|-------------------------------|-------------------------------|
  G|-------------------------------|-------------------------------|
  D|2------------------------------|2------------------------------|
  F|-------------------------------|-------------------------------|
  C|-------------------------------|-------------------------------|

  e|------- ------- ------- -------|------- ------- ------- -------|
  B|-------------------------------|-------------------------------|
  G|-------------------------------|-------------------------------|
  D|-------------------------------|-------------------------------|
  F|-------------------------------|-------------------------------|
  C|4------------------------------|4------------------------------|
            they        come    from
                all


    01:56

  e|7------ 7------ 7------ 7------|7------ 7------ 7------ 7------|
  B|8-------8-------8-------8------|8-------8-------8-------8------|
  G|9-------9-------9-------9------|9-------9-------9-------9------|
  D|-------------------------------|-------------------------------|
  A|-------------------------------|-------------------------------|
  E|-------------------------------|-------------------------------|

  e|------- ------- ------- -------|------- ------- ------- -------|
  B|-------------------------------|-------------------------------|
  G|7------------------------------|6------------------------------|
  D|-------------------------------|-------------------------------|
  A|-------------------------------|-------------------------------|
  E|-------------------------------|-------------------------------|

  e|------- ------- ------- -------|------- ------- ------- -------|
  B|-------------------------------|-------------------------------|
  G|-------------------------------|-------------------------------|
  D|2------------------------------|2------------------------------|
  F|-------------------------------|-------------------------------|
  C|-------------------------------|-------------------------------|

  e|------- ------- ------- -------|------- ------- ------- -------|
  B|-------------------------------|-------------------------------|
  G|-------------------------------|-------------------------------|
  D|-------------------------------|-------------------------------|
  F|-------------------------------|-------------------------------|
  C|4------------------------------|4------------------------------|
    All     the lonely          people                      Where
                                                                do



  e|7------ 7------ 7------ 7------|7------ 7------ 7------ 7------|
  B|8-------8-------8-------8------|8-------8-------8-------8------|
  G|9-------9-------9-------9------|9-------9-------9-------9------|
  D|-------------------------------|-------------------------------|
  A|-------------------------------|-------------------------------|
  E|-------------------------------|-------------------------------|

  e|------- ------- ------- -------|------- ------- ------- -------|
  B|-------------------------------|-------------------------------|
  G|5------------------------------|4------------------------------|
  D|-------------------------------|-------------------------------|
  A|-------------------------------|-------------------------------|
  E|-------------------------------|-------------------------------|


  e|------- ------- ------- -------|15-~--- 12----- ------- -------|
  B|-------------------------------|----------------12-------------|
  G|-------------------------------|------------------------14-----|
  D|2------------------------------|-------------------------------|
  A|-------------------------------|-------------------------------|
  E|-------------------------------|-------------------------------|

  e|------- ------- ------- -------|------- ------- ------- -------|
  B|-------------------------------|-------------------------------|
  G|-------------------------------|-------------------------------|
  D|-------------------------------|2------------------------------|
  F|-------------------------------|--------6-------2-------1------|
  C|4------------------------------|-------------------------------|
            they        belong?
                all


   (.

  e|------- ------- ------- -------|------- ------- ------- -------|
  B|8------------------------------|-------------------------------|
  G|9-~----------------------------|-------------------------------|
  D|9------------------------------|-------------------------------|
  A|-------------------------------|-------------------------------|
  E|-------------------------------|-------------------------------|

  e|------- ------- ------- -------|------- ------- ------- -------|
  B|-------------------------------|-------------------------------|
  G|-------------------------------|-------------------------------|
  D|5-~----------------------------|-------------------------------|
  A|-------------------------------|-------------------------------|
  E|-------------------------------|-------------------------------|

  e|------- ------- ------- -------|------- ------- ------- -------|
  B|-------------------------------|-------------------------------|
  G|12-~---------------------------|-------------------------------|
  D|-------------------------------|-------------------------------|
  A|-------------------------------|-------------------------------|
  E|-------------------------------|-------------------------------|

  e|------- ------- ------- -------|------- ------- ------- -------|
  B|-------------------------------|-------------------------------|
  G|-------------------------------|-------------------------------|
  D|-------------------------------|-------------------------------|
  F|-------------------------------|-------------------------------|
  C|4-~----------------------------|-------------------------------|









        B  Bend
        R  Release
        /  Slide up
        \  Slide down
        H  Hammer-on
        P  Pull-off
        ~  Vibrato
        +  Harmonic
        x  Mute note
        .  Play note like a dot in standard notation
        ^  Ties two notes together
        (. Pause



Tap to rate this tab
# A B C D E F G H I J K L M N O P Q R S T U V W X Y Z