Guitaretab - guitar tabs
Song name
# A B C D E F G H I J K L M N O P Q R S T U V W X Y Z

Beatles - Twist & Shout tab

Twist And Shout                                                - Beatles
===============

Main Riff:    D       G   A                            
B------------|----7----------------------|
G------------|----7---4-4-6---6666-------|
D------------|----7---5-5-7---7777-------|
A----------4-|5-------5-5-7---7777-----4-|
E------5-7---|--------3-3-5---5555-5-7---|

Well shake it up baby now, twist and shout
Come on come on come on come on baby now, come on and work it on out
Well work it on out, you know you look so good
You know you got me goin' now, just like I knew you would

Well shake it up baby now, twist and shout
Come on come on come on come on baby, come on and work it on out
You know you twist it little girl, you know you twist so fine
Come on and twist a little closer now, and let me know that you're mine 


Solo:     D   G      A          | -   repeat 3 times   - |
B------------------3-2----------|----------3---2---------|
G---------2------4-4-2----2-4-2-|--------4-4---2---2-4-2-|
D---------2----4-5--------2-5-4-|4---4---5---------2-5-4-|
A--------------5----------------|5---5-------------------|

Bass for solo:
G------------------4------------|
D----------------5---7-777775544|         
A--------5-----5----------------|

A                 A7
Ahh   Ahh   Ahh   Ahh   Ahh   Wow!!     

...Baby now, twist and shout
Come on come on come on come on baby, come on and work it on out
You know you twist it little girl, you know you twist so fine
Come on and twist a little closer now, and let me know that you're mine 

Well shake it shake it shake it baby now
Well shake it shake it shake it baby now
Well shake it shake it shake it baby now  (oo!)
A                 A7
Ahh   Ahh   Ahh   Ahh   Ahh     

Ending:             (Drums)       D9
e-----------------|---------------5---|
B-----------------|---------------5---|
G-----------------|---------------5---|      *   Tabbed by   *
D-7-9-11-12-13-14-|---------------4---|      *     Chris     *
A-----------------|---------------5---|      *  Williscroft  *
E-5-7-9--10-11-12-|-------------------|
[ Tab from: http://www.guitaretab.com/b/beatles/22388.html ]
Related for Twist & Shout tab