Song name
# A B C D E F G H I J K L M N O P Q R S T U V W X Y Z

Beau Dommage - Le Picbois tab

Tabbed by Adam


E||-----------------------------------------------------10h12-----||
B||-12~--12---12--14b-14b~--14br---------------10-12h13-------12~-||x2
G||---------9--------------------9-9~--9-11-12--------------------||
D||---------------------------------------------------------------||
A||---------------------------------------------------------------||
E||---------------------------------------------------------------||


E||-------------------------------------10---10---10---10-------------|
B||-12~14b-12-10h12-8h10p10fb-10fb-10fb---10b--10b--10b--8h10p8-7h8p7-|
G||-------------------------------------------------------------------|
D||-------------------------------------------------------------------|
A||-------------------------------------------------------------------|
E||-------------------------------------------------------------------|


E||--------7-8-10-12-12-12--12-12~-----10-12fb-12fb-10h12p10----------------|
B||-7-8-10--------------------------12-----------------------12~-10~--8--7--|
G||-------------------------------------------------------------------------|
D||-------------------------------------------------------------------------|
A||-------------------------------------------------------------------------|
E||-------------------------------------------------------------------------|


E||---------------------------------------------------|
B||------------10-12~---------------------------------|
G||-9~-9-11-12---------7~-7~---9-9-11-12-11~-9-11-12--|
D||---------------------------------------------------|
A||---------------------------------------------------|
E||---------------------------------------------------|

   ---------------------------||
   ---10-12-13h12p10----------||   x4
   ------------------12-11-9--||
   ---------------------------||
   ---------------------------||
   ---------------------------||


E||------------------------------------------------------|
B||------------------------------------------------------|
G||-9~-12-11-9-12-11-9-7~--12-11-9-12-11-9-9~--12-11-9---|
D||------------------------------------------------------|
A||------------------------------------------------------|
E||------------------------------------------------------|


E||-10-------------------------------------||
B||----13-12-10--------------------tr------||
G||----------------------9h11h12-11(12)----||
D||------------11~-11h12-------------------||
A||----------------------------------------||
E||----------------------------------------||


E||----------------------------------------------------10------------||
B||------------------------------------------------------13-12-10----||
G||-9~-12-11-9-12-11-9-7~--12-11-9-12-11-9-9~--12-11-9---------------||
D||--------------------------------------------------------------11~-||
A||------------------------------------------------------------------||
E||------------------------------------------------------------------||


N.B.: Il y a surement quelques erreurs. Disons que j'ai eu d'la difficulté à le trouver 
l'oreille. Mais tout de même, c'est déjà ça de fait :)
Tap to rate this tab
# A B C D E F G H I J K L M N O P Q R S T U V W X Y Z