Song name
# A B C D E F G H I J K L M N O P Q R S T U V W X Y Z

Beautiful South - 36d tab

1st attempt at a tab so dont be too harsh - not sure if all the string pluckings are in
right order but if you play around with it, it will sound right eventually. The song
pretty much perfect to me but you may have other opinions but comments and corrections 
welcome. Happy playing.

Tuning: standard
Intro:
e|-------------------------------------------------------------|
B|------3-----3-----3---------1-----1------0-----0----0--------|
G|----0---0-----0-----0-----0---0-----0------0-----0----0------|   x3
D|--4-------4-----4-----4-2-------2------------0-----0----0----|
A|5--------------------------------------2---------------------|
E|--------------------------------------3----------------------|
                                        (on 3rd) close your
Verse 1:
e|--------------------------------------------------------|
B|------3-----3-----3---------1-----1------0-----0---0----|
G|----0---0-----0-----0-----0---0-----0------0-----0---0--|
D|--4-------4-----4-----4-2-------2------------0----0---0-|
A|5--------------------------------------2----------------|
E|--------------------------------------3-----------------|

 legs....                  compliments.. behind. Dig a little

e|--------------------------------------------------------|
B|------3-----3-----3---------1-----1------0-----0---0----|
G|----0---0-----0-----0-----0---0-----0------0-----0---0--|
D|--4-------4-----4-----4-2-------2------------0----0---0-|
A|5--------------------------------------2----------------|
E|--------------------------------------3-----------------|

deeper into yourself...   find.............................

e|-----------------------------------------------------|
B|------3-----3-----3-----------3-----3-----3----3-----|
G|----0---0-----0-----0-------0---0-----0-----0----0---|
D|--4-------4-----4-----4---4------4------4----4-----4-|
A|5-----------------------5----------------------------|
E|-----------------------------------------------------|
                                                come over
e|--------------------------------------------------------|
B|------3-----3-----3---------1-----1------0-----0---0----|
G|----0---0-----0-----0-----0---0-----0------0-----0---0--|
D|--4-------4-----4-----4-2-------2------------0----0---0-|
A|5--------------------------------------2----------------|
E|--------------------------------------3-----------------|

here just sit right down..hair....      frown....   I hear.....

e|--------------------------------------------------------|
B|------3-----3-----3---------1-----1------0-----0---0----|
G|----0---0-----0-----0-----0---0-----0------0-----0---0--|
D|--4-------4-----4-----4-2-------2------------0----0---0-|
A|5--------------------------------------2----------------|
E|--------------------------------------3-----------------|

young men into dribbling clowns.

chorus:

36D so what? D so what?
  (d)        (d)         (c) x2
is that all that you got?
                    (g)
Verse 2:
e|-----------------------------------------------------------|
B|------3-----3-----3---------1-----1------0-----0-----0-----|
G|----0---0-----0-----0-----0---0-----0------0-----0-----0---|   x2
D|--4-------4-----4-----4-2-------2------------0-----0-----0-|
A|5--------------------------------------2-------------------|
E|--------------------------------------3--------------------|
                                           (on 2nd) Make their

e|--------------------------------------------------------|
B|------3-----3-----3---------1-----1------0-----0---0----|
G|----0---0-----0-----0-----0---0-----0------0-----0---0--|
D|--4-------4-----4-----4-2-------2------------0----0---0-|
A|5--------------------------------------2----------------|
E|--------------------------------------3-----------------|

  day and go ahead...     clothes.....  bed..    just a last gasp

e|--------------------------------------------------------|
B|------3-----3-----3---------1-----1------0-----0---0----|
G|----0---0-----0-----0-----0---0-----0------0-----0---0--|
D|--4-------4-----4-----4-2-------2------------0----0---0-|
A|5--------------------------------------2----------------|
E|--------------------------------------3-----------------|

  chance or an...          led................. and before you

e|--------------------------------------------------------|
B|------3-----3-----3---------1-----1------0-----0---0----|
G|----0---0-----0-----0-----0---0-----0------0-----0---0--|
D|--4-------4-----4-----4-2-------2------------0----0---0-|
A|5--------------------------------------2----------------|
E|--------------------------------------3-----------------|

 do just what you do...   thought.......chew...  the men run...

e|--------------------------------------------------------|
B|------3-----3-----3---------1-----1------0-----0---0----|
G|----0---0-----0-----0-----0---0-----0------0-----0---0--|
D|--4-------4-----4-----4-2-------2------------0----0---0-|
A|5--------------------------------------2----------------|
E|--------------------------------------3-----------------|

  business that....       too..........

chorus:

36D so what? D so what?
  (d)        (d)          (c) x2
is that all that you got?
                    (g)

bridge:

    You're just another 365 night stand
(bm)                               (g)
But you're so handy, you're so handy
            (d)                (a)
    You cheapen and you nasty every woman in this land
(bm)                                         (g)
but you're so handy, you're so handy
              (d)              (a)    (d)

Verse 3:
e|--------------------------------------------------------|
B|------3-----3-----3---------1-----1------0-----0---0----|
G|----0---0-----0-----0-----0---0-----0------0-----0---0--|
D|--4-------4-----4-----4-2-------2------------0----0---0-|
A|5--------------------------------------2----------------|
E|--------------------------------------3-----------------|
....pretty on the.........Andy's........Paul's... your body's.....

e|--------------------------------------------------------|
B|------3-----3-----3---------1-----1------0-----0---0----|
G|----0---0-----0-----0-----0---0-----0------0-----0---0--|
D|--4-------4-----4-----4-2-------2------------0----0---0-|
A|5--------------------------------------2----------------|
E|--------------------------------------3-----------------|
  fondly in the rugby....more.............    your name is...

e|--------------------------------------------------------|
B|------3-----3-----3---------1-----1------0-----0---0----|
G|----0---0-----0-----0-----0---0-----0------0-----0---0--|
D|--4-------4-----4-----4-2-------2------------0----0---0-|
A|5--------------------------------------2----------------|
E|--------------------------------------3-----------------|

  mentioned.......       horses....wool-packs.. your poses...

e|--------------------------------------------------------|
B|------3-----3-----3---------1-----1------0-----0---0----|
G|----0---0-----0-----0-----0---0-----0------0-----0---0--|
D|--4-------4-----4-----4-2-------2------------0----0---0-|
A|5--------------------------------------2----------------|
E|--------------------------------------3-----------------|

  passives into maniacs...more...........................

chorus:

36D so what? D so what?
  (d)        (d)          (c)
is that all that you got?
                    (g)
36D so what? D so what?
  (d)        (d)          (c)
is that all that you got?
                    (g)
36D so what? D so what?
  (d)        (d)          (c)
is that all that you got?
                    (g)
36D so what? D so what?
  (d)        (d)          (c)
is that all that you got?
                    (g)

outro:
e|-----------------------------------------------------------|
B|------3-----3-----3---------1-----1------0-----0-----0-----|
G|----0---0-----0-----0-----0---0-----0------0-----0-----0---|   x2
D|--4-------4-----4-----4-2-------2------------0-----0-----0-|
A|5--------------------------------------2-------------------|
E|--------------------------------------3--------------------|


Tabbed by Jonathan Jackson 14/08/06
Tap to rate this tab
# A B C D E F G H I J K L M N O P Q R S T U V W X Y Z