Song name
# A B C D E F G H I J K L M N O P Q R S T U V W X Y Z

Beck Bogert And Appice - Superstition tab

Song: Superstition
Artist: Jeff Beck, Tim Bogert and Carmine Appice
Album: Beck, Bogert & Appice
Composer: Stevie Wonder

Intro
E|----------------------15~--15~--15~-----15~---15~---15~---15~--------------|
B|--17~--17~--17~--17~--17~--17~--17~--17~---17~---17~---17~---17------------|
G|---------------------------------------------------------------------------|
D|---------------------------------------------------------------------------|
A|---------------------------------------------------------------------------|
E|-------------------------------------------------------------------14/0----|

Verse
E|---------------------------------------------------------------------------|
B|---------------------------------------------------------------------------|
G|------------------------------2^h0-----------------------------------------|
D|--2-0-2--5p0-2------0-------2------2--------0------------------------------|
A|----------------0h2-----2-0-------------0h2--------------------------------|
E|----------------------0-----------------------0----------------------------|


E|---------------------------------------------------------------------------|
B|---------------------------------------------------------------------------|
G|-------------------------------0-------------------------------------------|
D|--2-0-2--5^-2------0-------0-2----2----------------------------------------|
A|---------------0h2------2--------------------------------------------------|
E|---------------------0-----------------------------------------------------|

E|---------------------------------------------------------------------------|
B|---------------------------------------------------------------------------|
G|---------------------------------------------12-14^-12---------------------|
D|---14-12-14----------12-----14-14---14-12-14-----------14------------------|
A|------------12-13-14-----14------------------------------------------------|
E|---------------------------------------------------------------------------|

Chorus
         B          C               B     A                        B
When you believe in things that you don't understand, you're gonna suffer

Superstition ain't the way
Tap to rate this tab
 
# A B C D E F G H I J K L M N O P Q R S T U V W X Y Z