Guitaretab - guitar tabs
Song name
# A B C D E F G H I J K L M N O P Q R S T U V W X Y Z
Home / B / Beck / Gamma Ray tab

Beck - Gamma Ray tab

-------------------------------------------------------------------------------
			                 Gamma Ray - Beck
-------------------------------------------------------------------------------

Tuning:standard



Main Riff
E||------------------------|--------------------------|------------------------|
B||------------------------|--------------------------|------------------------|
G||------------------------|--------------------------|------------------------|
D||------------------------|--------------------------|------------------------|
A||---------------------5--|-----5--5--5--5--5--5--5--|------------------------|
E||--0----0----0--0--0-----|--------------------------|--3----3----3--3--3--5--|

E||--------------------------|
B||--------------------------|
G||--------------------------|
D||--------------------------|
A||--------------------------|
E||-----5--5--5--5--5--5--5--|

Verse
E||----------------------|----------------------|----------------------|----------------------|
B||----------------------|----------------------|----------------------|----------------------|
G||----------------------|----------------------|----------------------|----------------------|
D||----------------------|----------------------|----------------------|----------------------|
A||--5----5----5----5----|----------------------|--2----2----2----2----|--2----2----2----2----|
E||----------------------|--3----3----3----3----|----------------------|----------------------|
[ Tab from: http://www.guitaretab.com/b/beck/112237.html ]
Chorus
E||------------------------|--------------------------|------------------------|
B||------------------------|--------------------------|------------------------|
G||------------------------|--------------------------|------------------------|
D||------------------------|--------------------------|------------------------|
A||---------------------5--|-----5--5--5--5--5--5--5--|------------------------|
E||--0----0----0--0--0-----|--------------------------|--3----3----3--3--3--5--|

E||--------------------------|
B||--------------------------|
G||--------------------------|
D||--------------------------|
A||--------------------------|
E||-----5--5--5--5--5--5--5--| x4

E||----------------------|----------------------|----------------------|----------------------|
B||----------------------|----------------------|----------------------|----------------------|
G||----------------------|----------------------|----------------------|----------------------|
D||----------------------|----------------------|----------------------|----------------------|
A||----------------------|----------------------|----------------------|----------------------|
E||--7----7----7----7----|--7----7----7----7----|--7----7----7----7----|--7----7----7----7----|

Bridge  It was a little hard to figure out, but I think this is pretty close.
E||------------------------|---------------------|------------------------|---------------------|
B||------------------------|---------------------|------------------------|---------------------|
G||-------5s--7--5---------|---------5-----------|-------5s--7--5---------|---------5-----------|
D||------------------------|--7-----------5------|------------------------|--7-----------7------|
A||------------------------|---------------------|------------------------|---------------------|
E||------------------------|---------------------|------------------------|---------------------|
 x2

Outro - This is the lead part played over the outro, which is just a shortened
version of the chorus
E||------------------------|------------------------||
B||--10----10----8---------|--10----10----8---------||
G||---9-----9----9---------|---9-----9----9---------||
D||------------------------|------------------------||
A||------------------------|------------------------||
E||------------------------|------------------------||
Related for Gamma Ray tab