Song name
# A B C D E F G H I J K L M N O P Q R S T U V W X Y Z

Beck - Gamma Ray tab

======================================
GAMMA RAY - Beck        
======================================

This is actually my first tab, so don't expect the timing to be correct.
Anyways, here goes:

INTRO: (Choose which is easier for you)
e|---------------------------------------------------------------| \
B|---------------------------------------------------------------|  \
G|---------------------------------------------------------------|   |
D|---------------------------------------------------------------|   |
A|---------------------------------------------------------------|   |
E|---0-0---0-0-0---10-10-10-10-10-10-10-10-10--3-3---3-3-3-------|   |
                                                                     4x 
e|---------------------------------------------------------------|   |
B|---------------------------------------------------------------|   |
G|---------------------------------------------------------------|   |
D|---------------------------------------------------------------|   |
A|---------------------------------------------------------------|  /
E|---5-5-5-5-5-5-5-5-5-------------------------------------------| /


===============================OR================================                                


e|---------------------------------------------------------------| \
B|---------------------------------------------------------------|  \
G|---------------------------------------------------------------|   |
D|-----------------0-0-0-0-0-0-0-0-0-(Don't let this ring)-------|   |
A|---------------------------------------------------------------|   |
E|---0-0---0-0-0----------------------3-3---3-3-3----------------|   |
                                                                     |
                                                                     4x 
e|---------------------------------------------------------------|   |
B|---------------------------------------------------------------|   |
G|---------------------------------------------------------------|   |
D|---------------------------------------------------------------|   |
A|---------------------------------------------------------------|  /
E|---5-5-5-5-5-5-5-5-5-------------------------------------------| /

After you play the intro riff four times, do this before you play the verse:

e|---------------------------------------------------------------|
B|---------------------------------------------------------------|
G|---------------------------------------------------------------|
D|---------------------------------------------------------------|
A|---5----5----5----5--------------------------------------------|
E|---------------------------------------------------------------|

=================================================================

VERSE:

e|---------------------------------------------------------------|
B|---------------------------------------------------------------|
G|---------------------------------------------------------------|
D|---------------------------------------------------------------|
A|--------------------2---2---2---2---2---2---2---2--------------|
E|----3---3---3---3----------------------------------------------|

e|---------------------------------------------------------------|
B|---------------------------------------------------------------|
G|---------------------------------------------------------------|
D|---------------------------------------------------------------|
A|---5---5---5---5-----------------------------------------------|
E|---------------------------------------------------------------|


On the 4th time, play this before the chorus riff:

e|---------------------------------------------------------------|
B|---------------------------------------------------------------|
G|---------------------------------------------------------------|
D|---------------------------------------------------------------|
A|--------------------2---2---2---2---2---2---2---2--------------|
E|----3---3---3---3----------------------------------------------|


=================================================================

CHORUS:
The chorus riff is actually identical with the intro riff (you also play it 4 
times), but I'll tab it out anyways.

e|---------------------------------------------------------------| \
B|---------------------------------------------------------------|  \
G|---------------------------------------------------------------|   |
D|---------------------------------------------------------------|   |
A|---------------------------------------------------------------|   |
E|---0-0---0-0-0---10-10-10-10-10-10-10-10-10--3-3---3-3-3-------|   |
                                                                     4x 
e|---------------------------------------------------------------|   |
B|---------------------------------------------------------------|   |
G|---------------------------------------------------------------|   |
D|---------------------------------------------------------------|   |
A|---------------------------------------------------------------|  /
E|---5-5-5-5-5-5-5-5-5-------------------------------------------| /


===============================OR================================                                


e|---------------------------------------------------------------| \
B|---------------------------------------------------------------|  \
G|---------------------------------------------------------------|   |
D|-----------------0-0-0-0-0-0-0-0-0-----------------------------|   |
A|---------------------------------------------------------------|   |
E|---0-0---0-0-0----------------------3-3---3-3-3----------------|   |
                                                                     |
                                                                     4x 
e|---------------------------------------------------------------|   |
B|---------------------------------------------------------------|   |
G|---------------------------------------------------------------|   |
D|---------------------------------------------------------------|   |
A|---------------------------------------------------------------|  /
E|---5-5-5-5-5-5-5-5-5-------------------------------------------| /

After the chorus, play this before the next verse:
e|---------------------------------------------------------------|
B|---------------------------------------------------------------|
G|---------------------------------------------------------------|
D|---------------------------------------------------------------|
A|--2---2---2---2---2---2---2---2---5---5---5---5----------------|
E|---------------------------------------------------------------|

==================================================================

That's it, I haven't tabbed the bridge, and the other guitar parts yet. 
Expect them to be on my next tab.

Anyways, thanks for viewing.




Tap to rate this tab
 
# A B C D E F G H I J K L M N O P Q R S T U V W X Y Z