Song name
# A B C D E F G H I J K L M N O P Q R S T U V W X Y Z

Beck - Everybodys Got To Learn Sometime tab

-------------------------------------------------------------------------------
			                              Everybody's Got To Learn Sometime - Beck
-------------------------------------------------------------------------------
Tabbed by: K. Scruggs
Email: Kristopher.Scruggs@gmail.com

Tuning:  Drop D - DADGBe

Intro/Verse:

      Gm                               Gm6          Cm
e|----------------------------------|
B|-3---3---3---3---3---3---1---1----|
G|-3---3---3---3---3---3---0---0----|
D|-5---5---5---5-3-2---2---1---1----|
A|----------------------------------|
D|----------------------------------|

Last Repetition Of Verse (I need your loving):

      Gm                               D7                                   Cm           
                  D#                                  F
e|-------------------------------------------------------------------5---|
B|-3---3---3---3---1---1---1---1----------4---------------4----------6---|
G|-3---3---3---3---2---2---2---2--------5---5-----------3---3---3\5--5---|
D|-5---5---5---5---0---0---0---0------5-------5---3---5-------5------7---|
A|----------------------------------3-----------5---6-----------6\8--8---|
D|-----------------------------------------------------------------------|

Chorus:

   (Intro Bass Note)   Dm             D#                                Cm
e|------------|---------------------------------------------------------------|
B|------------|---------------------------------------------------------------|
G|------------|-------------0-------0-------5---------------------------------|
D|------------|---3-0---------------------5---5-------------------------------|
A|------------|-------0---1---1---1-----3-------------------------------------|
D|-----1------|-0-------1-------1-----5---------------------------------------|

Last Repetition Of Chorus:

    Dm             D#               F
e|-------------------------------------------------------------|
B|-------------------------------------------------------------|
G|-------------0-----------------------------------------------|
D|---3-0---------3---------------------------------------------|
A|-------0---1---3---------------------------------------------|
D|-0-------1-----3---------------------------------------------|

Post-Chorus:

e|---------------------------------------------------------------------------|
B|---------------------------------------------------------------------------|
G|-3-----3---------3-----3---------------------------------------------------|
D|-3-----2---------3-----2---------------------------------------------------|
A|-1-----1---------1-----1---------------------------------------------------|
D|---------------------------------------------------------------------------|


*Special Note*
Since the actual guitar part in the chorus is quite sparse and this is arranged for one 
my tab includes more filler.  The actual part is as follows:

      Dm            D#                                   Cm
e|---------------------------------------------------------------|
B|---------------------------------------------------------------|
G|-------------0~-------------5----------------------------------|
D|---3-0-------------------\5---3--1-----------------------------|
A|-------0---1---------------------------------------------------|
D|-0-------1-----------------------------------------------------|
Tap to rate this tab
# A B C D E F G H I J K L M N O P Q R S T U V W X Y Z