Song name
# A B C D E F G H I J K L M N O P Q R S T U V W X Y Z

Beck - Go It Alone tab

turn it up
prepare to get funky

it goes something like this

guitar/bass (listen for rhythm)
e-------------------------------------------------|
B-------------------------------------------------|
G-------------------------------------------------|
D-----------4-------------------------------------|
A---6-6p4h6-----6p4h6-----------------------------|
E-----------------------4-4p2h4--4p2h4/6--4--4p2--|

keys (near end of song)
e-----------------------------------------------|
B---------------7-------------------------------|
G----------6h8-----8----------------------------|
D-----------------------------------------------|
A-----------------------------------------------|
E-----------------------------------------------|

tabbed by A. Dreier
Tap to rate this tab
 
# A B C D E F G H I J K L M N O P Q R S T U V W X Y Z