Song name
# A B C D E F G H I J K L M N O P Q R S T U V W X Y Z

Beck - E-pro tab

-------------------------------------------------------------------------------
SONG: E-PRO
ARTIST: BECK
ALBUM: GUERO
YEAR: 2005
-------------------------------------------------------------------------------
Tabbed by:AngeloVP
Email:angelovp@optonline.net

Tuning:Standard

The spacing may be a bit off, but if you listen to the song you will get it...Its not that hard to play.

INTRO: PLAY 4 TIMES
e|---------------------------------------------------------------------------------|
B|---------------------------------------------------------------------------------|
G|---------------------------------------------------------------------------------|
D|---------------------------------------------------------------------------------|	
A|---------------3--3---5--5----5--3-----------------------------------------------|
E|-----0----0---------------------------3--5--5--5---5--3--3--3--5--5--5--5--3--3b-|


Verse: PLAY FOR 8 TIMES
* In the song there is only a bass part, but you can play this and it will sound good also.
e|---------------|-----------------------------------------------------------------|
B|---------------|-----------------------------------------------------------------|
G|---------------|---AFTER THE EIGHTH TIME SLIDE FROM THE 12TH FRET---------|
D|---------------|-----------------------------------------------------------------|
A|-2-2--x--2-2---|-----------------------------------------------------------------|
E|-0-0--x--0-0---|---12/0----------------------------------------------------------|

CHORUS(SAME AS INTRO):PLAY 4 TIMES
e|---------------------------------------------------------------------------------|
B|---------------------------------------------------------------------------------|
G|---------------------------------------------------------------------------------|
D|---------------------------------------------------------------------------------|	
A|---------------3--3---5--5----5--3-----------------------------------------------|
E|-----0----0---------------------------3--5--5--5---5--3--3--3--5--5--5--5--3--3b-|

Verse: PLAY FOR 8 TIMES
e|---------------|-----------------------------------------------------------------|
B|---------------|-----------------------------------------------------------------|
G|---------------|----------AFTER THE EIGHTH TIME SLIDE FROM THE 12TH FRET---------|
D|---------------|-----------------------------------------------------------------|
A|-2-2--x--2-2---|-----------------------------------------------------------------|
E|-0-0--x--0-0---|---12/0----------------------------------------------------------|

CHORUS(SAME AS INTRO):PLAY 4 TIMES
e|---------------------------------------------------------------------------------|
B|---------------------------------------------------------------------------------|
G|---------------------------------------------------------------------------------|
D|---------------------------------------------------------------------------------|	
A|---------------3--3---5--5----5--3-----------------------------------------------|
E|-----0----0---------------------------3--5--5--5---5--3--3--3--5--5--5--5--3--3b-|

REST FOR 8 MEASURES THEN PLAY THE CHORUS
AFTER 8 MEASURES OF THE CHORUS TURN DOWN THE VOLUME A BIT AND PLAY 2 MEASURES
THEN PLAY THE REST OF THE CHORUS AND FADE OUT


| /  slide up
| \  slide down
| h  hammer-on
| p  pull-off
| ~  vibrato
| +  harmonic
| x  Mute note
===============================================================================
Tap to rate this tab
# A B C D E F G H I J K L M N O P Q R S T U V W X Y Z