Song name
# A B C D E F G H I J K L M N O P Q R S T U V W X Y Z

Beck - Nausea tab

Song: Nausea
Artist: Beck
Album: The Information
Tuning: EBGDAE
Tabbed by: paintitblack39
e-mail: PM me

Intro/Verse/Main Riff:
e|----------------------------|
B|----------------------------|
G|----------------------------|
D|----------------------------|
A|-4-4-5-5-4-4-4-4-5-0--------|
E|-2-2-3-3-2-2-2-2-3-0--------|

Chorus:

e|----------------------------------------------------|
B|----------------------------------------------------|
G|----------------------------------------------------|
D|----------------------------------------------------|
A|-2-2-2--2-2--2-2-2-2-2-2---6-6-6--6-6--6-6-6-6-6-6--|
E|-0-0-0--0-0--0-0-0-0-0-0---4-4-4--4-4--4-4-4-4-4-4--|

That's how it sounded when he played it on the Late Show with David Letterman.
Tap to rate this tab
 
# A B C D E F G H I J K L M N O P Q R S T U V W X Y Z