Guitaretab - guitar tabs
Song name
# A B C D E F G H I J K L M N O P Q R S T U V W X Y Z
Home / B / Beck / Face tab

Beck - Face tab

_A______Asus4______Dmaj7____G

e------------------------------------|
B---2------2-3-2-----2------2-3-2----|
G----2---2------------2----0---------|
D-------------------0----------------|
A--0----0----------------------------|
E------------------------------------|

_A_____E______D5___C#5__C5__H5

e---------0---------------------------|
B--2------0---7-----------------------|
G---2---------7----6---5---4---------|
D-------------7-----6---5---4---------|
A-0-----------5-----4---3---2---------|
E------0------------------------------|


A5_________D5___4x

Verse

Chorus

_C#5___C5____H5____E5

e-----------------------------------|
B(5)---5---(3)---------------------|
G--6----5----4---(2)----------------|
D--6----5----4----2-----------------|
A--4----3----2----2-----------------|
E-----------------0-----------------|

_C#5__F#5____F5_____G5___F5__G5

e-----(2)---------------------------|
B--5--(2)---------------------------|
G--6--(2)---------------------------|
D--6---4-----3-------5---3---5------|
A--4---4-----3-----x-5-x-3---5------|
E------2-----1-----x-3-x-1---3------|


Verse

Chorus

Solo

(A5______C5______F5_______D5__3x
[ Tab from: http://www.guitaretab.com/b/beck/139885.html ]
_A5______C5______F5_E5_C5_D5)

e-------------------------------------|
B-------------------------------------|
G|:-----------------------------------|
D|:-----------------------------------|
A--------------3-3-3-3-3-3-3-3--------|
E-5-5-5-5-5-3-------------------------|

e-------------------------------------|
B-------------------------------------|
G-------------------------------:|----|
D-------------------------------:|----|
A-2-3-2-3-2---------------------------|
E----------3--/5-5-5-5-5-5-5-5--------|

e------8--8-10---8-8-8-\-----8--8-10-|
B-/10---10--------10-10\--/10-10-----|
G-------------------------------------|
D-------------------------------------|
A-------------------------------------|
E------------------------------------|

|----3x-----|

e-8--8--8-10----8--8--8--13-12-8-10---|
B--10-10---------10-10----------------|
G-------------------------------------|
D-------------------------------------|
A-------------------------------------|
E------------------------------------|

Gmay7 (3x0032)


Verse

Varied Chorus
(_C#5___C5____H5____E5
__C#5___F#5___H5___E5)

Chorus


Cmay7 (x32000) Bbmay7(x1323x)  3x

Cmay7   B6 (x130xx)
Related for Face tab