Song name
# A B C D E F G H I J K L M N O P Q R S T U V W X Y Z

Beethoven Ludwig - Ninth tab

From: dao002@acad.drake.edu (Xelard(Dave))
Subject: TAB:Beethoven's ninth(part)
Date: 5 May 94 21:55:18 GMT
Nntp-Posting-Host: acad.drake.edu

Ode to Joy
From Beethoven's ninth
From Guitar, December 1993

sorry about how cramped it was, but it seemed like a good idea when I started
typing it in.

       repeat once                       |--1st time|2nd time   
------------------|0-0-1-3-3-1-0---------0-0--------|---------
-----------------o|--------------3-1-1-3------33---o|3--11----
--0-0-0-0-0-0-0-0-|-0-0-0-0-0-0-0-0-0-0-0-0-0---0-0-|-0---0-0-
---2---2---3---3--|--2---2---0---0---2---2---0---0--|--0---2--
-3---3---3---3---o|3---3---2---2---0---0-----------o|----3----
------------------|------------------------3---3----|3--------

-----0-----010-----010-----------
-3-3---1-3-----1-3-----3-1-3-----
--0-0-0-0-0---0-0-0---1-12-2-0---
---0---2-------2---------2-0-0---
-2---3---2---3---2-------0-------
---------------------0-----2-3---

0-0-1-3-3-1-0---------0--------
--------------3-1-1-3--3--11---
-0-0-0-0-0-0-0-0-0-0-0--0--0---
--2---2---0---0---2---2--0-2---
3---3---2---2---0---0------3---
-----------------------3-------


If you want I can post the first part of Beethoven's fifth.  I have
actually tabbed that one out for one guitar.
Tap to rate this tab
# A B C D E F G H I J K L M N O P Q R S T U V W X Y Z