Song name
# A B C D E F G H I J K L M N O P Q R S T U V W X Y Z

Before The Dawn - Enemy tab

Hey guys im still a newbie at all this tabbing and this is my second tab.
I tried my best and it all sounds good.

E|------------------------------------|
B|------------------------------------|
G|-------13-13-----------11-11--------|
D|--11-11-----13-13-14-14-------------|
A|------------------------------------|
D|------------------------------------|

E|------------------------------------|
B|------------------------------------|
G|-11-11-13-13------------------------|
D|-------------9-9-9-9-9-9------------|
A|------------------------------------|
D|------------------------------------|

E|------------------------------------|
B|------------------------------------|
G|-11-11-13-13---------9-9------------|
D|-------------9-9-9-9----------------|
A|------------------------------------|
D|------------------------------------|

E|------------------------------------|
B|------------------------------------|
G|-9-9-11-11--------------------------|
D|----------11-11-11-11-9-9-----------|
A|------------------------------------|
D|------------------------------------|
_________________________________________________________  (x2)                        
Tap to rate this tab
 
# A B C D E F G H I J K L M N O P Q R S T U V W X Y Z