Song name
# A B C D E F G H I J K L M N O P Q R S T U V W X Y Z

Before Their Eyes - Sing To Me tab

Tabbed by: Joshua Garcia (halofreak731@aol.com)

Tabs for the song: Sing To Me by Before Their Eyes
Please rate and let me know if you have any corrections. Thank you.


Tuning: Drop C# (C# G# C# F# A# D#)


Intro
Guitar 1:
D#||-----------------------------------------------------------------|
A#||--15\13/15\13---11-10-11~---\6----15\13/15\13---11-10-11~---/18--|
F#||-----------------------------------------------------------------|
C#||-----------------------------------------------------------------|
G#||-----------------------------------------------------------------|
C#||-----------------------------------------------------------------|


D#||------------------------------------------------------------|
A#||--15\13/15\13---11-10-11~---\6----15\13/15\13---11-10-11~---|
F#||------------------------------------------------------------|
C#||------------------------------------------------------------|
G#||------------------------------------------------------------|
C#||------------------------------------------------------------|


Guitar 2:
D#||----------------------------------------|
A#||----------------------------------------|
F#||----------------------------------------| x2
C#||--5555-55-8-8888888-3333-33--1-1111111--|
G#||--5555-55-8-8888888-3333-33--1-1111111--|
C#||--5555-55-8-8888888-3333-33--1-1111111--|



Verse
Guitar 1/2:
D#||--------------------------------------|--------------------------------------|
A#||--------------------------------------|--------------------------------------|
F#||--------------------------------------|--------------------------------------|
C#||--------------------------------------|--------------------------------------|
G#||-33--3-----55--5-----11--1-----1-1-1--|-33--3-----55--5----------------------|
C#||--------------------------------------|---------------------55--5-----5-5-5--|
     ..  .     ..  .     ..  .     . . .    ..  .     ..  .     ..  .     . . .


D#||------------------------------------------------------------------|
A#||------------------------------------------------------------------|
F#||------------------------------------------------------------------|
C#||------------------------------------------------------------------|
G#||-3-3-3-3-3-3-3-3-5-5-5-5-5-5-5-5-1-1-1-1-1-1-1-1-1-1-1-1-1-1-1-1--|
C#||------------------------------------------------------------------|
     . . . . . . . . . . . . . . . . . . . . . . . . . . . . . . . .


D#||------------------------------------------------|
A#||------------------------------------------------|
F#||------------------------------------------------|
C#||----------------------------------13---12---8---|
G#||-3-3-3-3-3-3-3-3-5-5-5-5-5-5-5-5--13---12---8---|
C#||----------------------------------13---12---8---|
     . . . . . . . . . . . . . . . .


Guitar 2 (Harmonic):
D#||-----------13-----------|
A#||-----11----------11-----|
F#||--12----12----12----12--| x14
C#||------------------------|
G#||------------------------|
C#||------------------------|



Chorus
Guitar 1:
D#||---------------------------------------------------|
A#||---------------------------------------------------|
F#||--10----------10--------------------------7--------| x2
C#||-------7---8-------8---7--10---8---10--10---10-8---|
G#||---------------------------------------------------|
C#||---------------------------------------------------|


Guitar 2:
D#||----------------------------------------|
A#||----------------------------------------|
F#||----------------------------------------| x2
C#||--5555555-8-8888888-3333333--1-1111111--|
G#||--5555555-8-8888888-3333333--1-1111111--|
C#||--5555555-8-8888888-3333333--1-1111111--|



Verse
Guitar 1/2:
D#||----------------------------------------------------------|
A#||----------------------------------------------------------|
F#||----------------------------------------------------------| x2
C#||-8--8----8------10-10---10-----12-12---12-----13-13---13--|
G#||-10-10---10-----12-12---12-----13-13---13-----13-13---13--|
C#||----------------------------------------------------------|
     .  .    .      .  .    .      .  .    .      .  .    .

D#||--------------------------------------------------|
A#||--------------------------------------------------|
F#||--------------------------------------------------|
C#||-8--8--8--8--8--8--8--8--10-10-10-10-10-10-10-10--|
G#||-10-10-10-10-10-10-10-10-12-12-12-12-12-12-12-12--|
C#||--------------------------------------------------|
     .  .  .  .  .  .  .  .  .  .  .  .  .  .  .  .

D#||--------------------------------------------------|
A#||--------------------------------------------------|
F#||--------------------------------------------------|
C#||-12-12-12-12-12-12-12-12-13-13-13-13-13-13-13-13--|
G#||-13-13-13-13-13-13-13-13-13-13-13-13-13-13-13-13--|
C#||--------------------------------------------------|
     .  .  .  .  .  .  .  .  .  .  .  .  .  .  .  .

D#||--------------------------------------------------|
A#||--------------------------------------------------|
F#||--------------------------------------------------|
C#||-8--8--8--8--8--8--8--8--10-10-10-10-10-10-10-10--|
G#||-10-10-10-10-10-10-10-10-12-12-12-12-12-12-12-12--|
C#||--------------------------------------------------|
     .  .  .  .  .  .  .  .  .  .  .  .  .  .  .  .

D#||------|
A#||------|
F#||------|
C#||--12--|
G#||--13--|
C#||------|
      .


Chorus
Guitar 1:
D#||---------------------------------------------------|
A#||---------------------------------------------------|
F#||--10----------10--------------------------7--------| x4
C#||-------7---8-------8---7--10---8---10--10---10-8---|
G#||---------------------------------------------------|
C#||---------------------------------------------------|


Guitar 2:
D#||----------------------------------------|
A#||----------------------------------------|
F#||----------------------------------------| x4
C#||--5555555-8-8888888-3333333--1-1111111--|
G#||--5555555-8-8888888-3333333--1-1111111--|
C#||--5555555-8-8888888-3333333--1-1111111--|



Interlude
Guitar 1:
D#||------------------------------------------------------------------------|
A#||------------------------------------------------------------------------|
F#||-------5-5-5-5-5/7-7-7-7/8-8-8-------------7/8-8-8-8/10-10-10-10\7-7-7--| x2
C#||-1-1-----------------------------1-1-1-1--------------------------------|
G#||-1-1-----------------------------1-1-1-1--------------------------------|
C#||-1-1-----------------------------1-1-1-1--------------------------------|


Guitar 2:
D#||------------------------------------------------------------------------|
A#||------------------------------------------------------------------------|
F#||-------5-5-5-5-5/7-7-7-7/8-8-8-------------5-5-5-5-5/7-7-7-7\3-3-3------| x2
C#||-1-1-----------------------------1-1-1-1--------------------------------|
G#||-1-1-----------------------------1-1-1-1--------------------------------|
C#||-1-1-----------------------------1-1-1-1--------------------------------|



Bridge
Guitar 1/2:
D#||-----------6---|---------------|
A#||-----------6---|-------3---4---|
F#||-------7-------|-------3---2---|
C#||---------------|---------------|
G#||---------------|---------------|
C#||---5-----------|---1-----------|


D#||--------------------------------------|
A#||--------------------------------------|
F#||-------------------8888888888888888---| x2
C#||--8888888888888888-8888888888888888---|
G#||--8888888888888888-6666666666666666---|
C#||--8888888888888888--------------------|



Chorus
Guitar 1:
D#||---------------------------------------------------|
A#||---------------------------------------------------|
F#||--10----------10--------------------------7--------| x2
C#||-------7---8-------8---7--10---8---10--10---10-8---|
G#||---------------------------------------------------|
C#||---------------------------------------------------|


Guitar 2:
D#||----------------------------------------|
A#||----------------------------------------|
F#||----------------------------------------| x2
C#||--5555555-8-8888888-3333333--1-1111111--|
G#||--5555555-8-8888888-3333333--1-1111111--|
C#||--5555555-8-8888888-3333333--1-1111111--|



Chorus/Outro
Guitar 1/2:
D#||---------------------------------------|
A#||---------------------------------------|
F#||-------------------33333333------------| x2
C#||-55555555-11111111-33333333-33333333---|
G#||-55555555-11111111-11111111-33333333---|
C#||-55555555-11111111----------33333333---|


Guitar 1:
D#||---------------|
A#||---------------|
F#||---------------|
C#||---5~--3~--1~--|
G#||---5~--3~--1~--|
C#||---5~--3~--1~--|


Guitar 2:
D#||-----------6~--|
A#||-----------6~--|
F#||---------------|
C#||---5~--3~------|
G#||---5~--3~------|
C#||---5~--3~------|





Tablature Legend
----------------
 h   - hammer-on
 p   - pull-off
 b   - bend
 r   - release bend
 *   - pinch harmonic
 '   - natural harmonic
 x   - mute note
 .   - palm mute
 /   - slide down
 \   - slide up
Tap to rate this tab
 
# A B C D E F G H I J K L M N O P Q R S T U V W X Y Z