Song name
# A B C D E F G H I J K L M N O P Q R S T U V W X Y Z

Beirut - Elephant Gun tab

Tabbed by: JJmig
Email:JJmigjj@gmail.com

Tuning: Standard, Capo in the 6th Fret


e|-0-0-3-3-0-0-3-0-0----0-0-2-2-0-0-2-0-0----2-2-2-0-0-0h2-2-3-3----|
B|-0-0-0-0-0-0-0-0-0---h2-2-2-2-2-2-2-2-2----3-3-3-3-3-3-3-3-3-3----|
G|-0-0-0-0-0-0-0-0-0----0-0-0-0-0-0-0-0-0----2-2-2-2-2-2-2-2-2-2----|
D|-2-2-2-2-2-2-2-2-2---h2-2-2-2-2-2-2-2-2----0-0-0-0-0-0-0-0-0-0----|
A|-2-2-2-2-2-2-2-2-2----0-0-0-0-0-0-0-0-0---------------------------|
E|-0-0-0-0-0-0-0-0-0----0-0-0-0-0-0-0-0-0---------------------------|
   E minor              A7                   D

e|------3-3--------2-0------------------------------------------------------|
B|------3-3-------3-3-------------------------------------------------------|
G|--0-0-0-0---0-0-0-0-------------------------------------------------------|
D|--0-0-0-0---0-0-0-0-------------------------------------------------------|
A|--x-x-------X-X-----------------------------------------------------------|
E|--3-3-------2-2-----------------------------------------------------------|
    G        G/F#

When strumming alternate downs and ups

Simple enough, this repeats through the whole song
Tap to rate this tab
# A B C D E F G H I J K L M N O P Q R S T U V W X Y Z