Song name
# A B C D E F G H I J K L M N O P Q R S T U V W X Y Z

Belay My Last - Sleepwalk tab

----------------------------------------------------------------------------
			     Sleepwalk - Belay My Last
----------------------------------------------------------------------------
Tabbed by:Ryanshopefan1
Email:Guitplayer14@hotmail.com

I Found This Song On The Internet One Day And I Really Liked This Breakdown Riff, So I 
To Tab It Out For Everyone. Enjoy!  =)


Tuning:Drop C

D|-------------------------------------------------------------------------|
A|-15p12----15p12----15----15p12----15p12----15----------------------------|
F|-------13-------13-------------13-------13-------------------------------|
C|--------------------------------------------------0000-------------------|
G|--------------------------------------------------0000-------------------|
C|--------------------------------------------------0000-------------------|
                                                    ....

D|-------------------------------------------------------------------------|
A|-15p12----15p12----15----15p12----15p12----15----------------------------|
F|-------13-------13-------------13-------13-------------------------------|
C|--------------------------------------------------0000--0000-------------|
G|--------------------------------------------------0000--0000-------------|
C|--------------------------------------------------0000--0000-------------|
                                                    ....  ....
Play This Twice I Think.
http://www.myspace.com/belaymylast

| /  Slide Up
| \  Slide Down
| h  Hammer-On
| p  Pull-Off
| ~  Vibrato
| *  Harmonic
| x  Mute Note
| .  Palm Mute
============================================================================
Tap to rate this tab
 
# A B C D E F G H I J K L M N O P Q R S T U V W X Y Z