Song name
# A B C D E F G H I J K L M N O P Q R S T U V W X Y Z

Belie My Burial - Cannibal Holocaust tab

Belie my burial-Cannibal Holocaust

Drop c

Its A Fairly Easy Song , Always Been On Here Looking For It So I Got tired And Tabbed It out:)
Intro
|-------------|-------------|
|-------------|-------------|
|-------------|-------------|
|-------------|-2--3--5--6--|
|--------2-2--|--3--5--6--8-|
|-5-4-3-0---3-|-------------|
  . . . .
Little bridge thingy?
|----------------------------|----------|
|----------------------------|----------|
|----------------------------|----------|
|----------------------------|----------| <-second ending
|-555555-444444-777777-555555|-5555-555-|
|----------------------------|----------|
verse same as the intro
|-------------|-------------|
|-------------|-------------|
|-------------|-------------|
|-------------|-2--3--5--6--|
|--------2-2--|--3--5--6--8-|
|-5-4-3-0---3-|-------------|
  . . . .
mint breakdown(figure out the timing) btw theyre are slides in between.
|-----------|
|-----------|
|-----------|
|-----------|
|-000000000-
|-000000000-
  .........
then repeat
|-------------|-------------|
|-------------|-------------|
|-------------|-------------|
|-------------|-2--3--5--6--|
|--------2-2--|--3--5--6--8-|
|-5-4-3-0---3-|-------------|
  . . . .

|----------------------------|----------|
|----------------------------|----------|
|----------------------------|----------|
|----------------------------|----------| <-second ending
|-555555-444444-777777-555555|-5555-555-|
|----------------------------|----------|
again
|-------------|-------------|
|-------------|-------------|
|-------------|-------------|
|-------------|-2--3--5--6--|
|--------2-2--|--3--5--6--8-|
|-5-4-3-0---3-|-------------|
  . . . .
then hit open and hold it(my buttons broken for the little sign:P)
|--
|--
|--
|0-
|0-
|0-
another mint breakdown(figure out the timing)
|-----------|
|-----------|
|-----------|
|-----------|
|-000000000-
|-000000000-
  .........
now this part x2
|----------------------------|----|
|----------------------------|----|
|----------------------------|----|
|-------------------------7-5|----|every 3rd ending
|-------------------------8-7|----|
|-000-000-000-000-000-000----|-3--|
  ... ... ... ... ... ...
outro
|---------|
|---------|
|---------|
|-5-4-3-0-|
|-5-4-3-0-|
|-5-4-3-0-|
  . . . .
there ya have it:)
Tap to rate this tab
# A B C D E F G H I J K L M N O P Q R S T U V W X Y Z