Guitaretab - guitar tabs
Song name
# A B C D E F G H I J K L M N O P Q R S T U V W X Y Z

Bell X1 - Rocky Took A Lover tab

Here's the riff for this song, it's played on a synth/keyboard but still sounds good on guitar.
e----15---15---15---15---15---15---15---15---15---15---15---15-------|
B--------------------------------------------------------------------|
G--12---12---12---12---(12)---12---12---12---12---12---12---12-------|     x1
D--------------------------------------------------------------------|
A--------------------------------------------------------------------|
E--------------------------------------------------------------------|

e----14--------15---15---12--------15---15--|
B---------15------------------12------------|
G--12---12---12---12---12---12---12---12----| this is the main riff and i couldnt be bothered
D-------------------------------------------| counting how many times it's used
A-------------------------------------------|
E-------------------------------------------|
[ Tab from: http://www.guitaretab.com/b/bell-x1/77583.html ]
Related for Rocky Took A Lover tab