Song name
# A B C D E F G H I J K L M N O P Q R S T U V W X Y Z

Ben Folds - Wandering tab

verse 1
e|-------------------------------------------------------------|
B|-1-1--1-1--1-1-1-1--1-1-1---1-0-1-1-1--1-1--1-1-1-1--1-1-1-1-|
G|-2-2--2-2--0-0-0-0--2-2-2-2-------2-2--2-2--0-0-0-0--2-2-2-2-|
D|-2-2--3-3--2-2-2-2--3-3-3-3-------2-2--3-3--2-2-2-2--3-3-3-3-|
A|-------------------------------------------------------------|
E|-------------------------------------------------------------|

e|-----------------------------------------------|
B|---------1-1-1-1-------------------------------|
G|-2-2-4-4-0-0-2-2-2-2-2-2--4---4-5-7------------|
D|-3-3-5-5-2-2-3-3-3-3-3-3--5---5-7-9------------|
A|-5-5-5-5---------5-5-5-5--5-5------------------|
E|-----------------------------------------------|
Tap to rate this tab
# A B C D E F G H I J K L M N O P Q R S T U V W X Y Z