Song name
# A B C D E F G H I J K L M N O P Q R S T U V W X Y Z

Bender - Angel Dust tab

ok this is my first tab and it's probably not exactly right but i've never been able
to find any bender tabs other than isolate so i decided to try this one out. the
tuning is a bit messed up (dropped c flat) so it's BF#BEG#C# from low to high. ya i
know. anyway here goes:

intro repeat this as many times as you need to
|------------------|
|------------------|
|---------------7--|
|-3h4p3-3h4p3p0-7--|
|-3h4p3-3h4p3p0-5--|
|-3h4p3-3h4p3p0----|

verse "that revolving door..."
|------------------------------------|
|------------------------------------|
|-7-----------7-----8-8-7-7-7--------|
|-7-x9--3-----7-x4--8-8-7-7-7--3-----|
|-5-----3-x9--5-----6-6-5-5-5--3-x9--|
|-------3----------------------3-----|

"or stand repent..." into chorus
|---------------------------------------------------|
|---------------------------------------------------|
|-------------7------------------7------------------|
|-0--3--5--8--7-x8--3-----8------7-x8--3-----8------|
|-0--3--5--8--5-----3-x8--8-x16--5-----3-x8--8-x16--|
|-0--3--5--8--------3-----8------------3-----8------|

"and she covers me with angel dust..."
|------------------------------|
|------------------------------|
|------------------------------|
|-0--5--8--3------5--8--3------|
|-0--5--8--3-x18--5--8--3-x18--|
|-0--5--8--3------5--8--3------|

a second guitar also comes in here with:
|----------------13----------------13-----------|
|-13-11-10-13-11----13-11-13-11-10----10-11-13--|
|-----------------------------------------------|
|-----------------------------------------------|
|-----------------------------------------------|
|-----------------------------------------------|

well that's all of it, just figure out the order and strumming pattern and enjoy
Tap to rate this tab
 
# A B C D E F G H I J K L M N O P Q R S T U V W X Y Z