Song name
# A B C D E F G H I J K L M N O P Q R S T U V W X Y Z

Benjamin Francis Leftwich - Wont Back Down tab

Standard Tuning
The plucked guitar part for this song is horribly simple


e |---0--|---0--|---0--|
B |--0-0-|--0-0-|--0-0-|
G |------|------|------|  Verse
D |------|------|------|
A |-4----|-0----|-7----|
E |------|------|------|

e |---0--|---0--|---0--|---0--|---0--|---0--|---0--|---0--|
B |--0-0-|--0-0-|--0-0-|--0-0-|--0-0-|--0-0-|--0-0-|--0-0-|   "Hey Baby"
G |------|------|------|------|------|------|------|------|  
D |------|------|------|------|------|------|------|------|
A |-4----|-4----|-7----|-7----|-0----|-0----|-7----|-7----|
E |------|------|------|------|------|------|------|------|
Tap to rate this tab
# A B C D E F G H I J K L M N O P Q R S T U V W X Y Z