Song name
# A B C D E F G H I J K L M N O P Q R S T U V W X Y Z

Benjamin Woolman - Soul Discovery tab

#----------------------------------PLEASE NOTE---------------------------------#
#This file is the author's own work and represents their interpretation of the #
#song. You may only use this file for private study, scholarship, or research. #
#------------------------------------------------------------------------------#

SOUL DISCOVERY
As recorded by Benjamin Woolman
(From the 1996 Album NARADA "GUITAR FINGERSTYLE")

Transcribed by FingerMan
	

Music by Benjamin Woolman
Arranged by Benjamin Woolman

Gtr I (C# F# C# F# A# C#) - 'Untitled'

  Q=85
                                       $
 4/4
  Gtr I
  E  E E E   E   E  E E    H..       E   +E  E E E   E   E  E E
|--------0--(0)-(0)-0-0-|-(0)----------|---------0--(0)-(0)-0-0--|
|-----------------------|--------------|-------------------------|
|-----------------------|--------------|-------------------------|
|----5-5-5---5---5------|--4---------5-|-(5)-5-5-5---5---5-------|
|-0------0--------------|--------------|--0------0---------------|
|-------------------2---|--0-----------|--------------------2----|
  Q.     Q.         Q      W              Q.     Q.         Q


   H..       E   +E  E E E   E   E  E E    W
|-(0)----------|---------0--(0)-(0)-0-0-|-(0)----|
|--------------|------------------------|--------|
|--------------|------------------------|--------|
|--4---------5-|-(5)-5-5-5---5---5------|-/7-----|
|--------------|--0------0--------------|--------|
|--0-----------|--------------------2---|--0-----|
   W              Q.     Q.         Q      W


  S +S  E E E E Q.      S +S  E E E E Q.      E E E  E   E   E  E   E
|-2-(2)s4-5---4-4-----|-------------0-0-----|------------0------0--(0)--|
|---------------0-----|-3-(3)s5-5-----------|-0-1s3-(3)-(3)-/5-(5)-(5)--|
|-----------4---------|---------------5-----|---------------------------|
|---------2--------2--|-----------5---------|--------0--(0)---------2---|
|---------------------|---------5--------5--|-----0-------------2-------|
|---------------------|---------------------|---------------------------|
  Q       H        Q    Q       H        Q    Q   H             Q


                                                        3/4
   E   E  E   E   E   E  E  E     E   Q     E  E Q.      +H     E E
|--0------0--(0)--0--(0)-------|------0----(0)---------|------------|
|-(5)-/7-(7)-(7)--7---5--8-(8)-|-(8)--8----(8)---8-----|-(8)----5-7-|
|------------------------------|--5--(5)-------5-------|------------|
|-(2)---------4--(4)-(4)----5--|-(5)--------5----------|------------|
|-(2)-----4--------------5-----|-(5)-----5----------5--|-(5)--------|
|------------------------------|-----------------------|------------|
  +E   E  H              Q       +Q      H          Q    +H.


 4/4
  E  E   E   Q    E   S  +S   E
|-7-(7)---------------9--(9)s=7--|
|--------7---8----0--(0)-(0)-(0)-|
|--------------------------------|
|----9--(9)-(9)------------------|
|-9-------------9-7--------------|
|--------------------------------|
  H             e Q.


  E  E   E   Q      E   E  E    +E   E E Q   E E E
|-5-(5)--0-------------------|-------------------0-|
|------------8-----(8)-10----|------12-7-8-------8-|
|-------------------------14-|-(14)------------5---|
|----5--(5)-10----(10)-------|---------0-----5-----|
|-4-----------------9--------|---0---------5-------|
|--------------7-------------|---------------------|
  H            Q.          E     Q     Q   H


  +E   E   E  Q     E    E    E
|-(0)-(0)------------------------|
|-(8)-(8)-10-10---(10)-(10)-<12>-|
|------------------------7-------|
|------5------------7---(7)------|
|--5-----------------------------|
|---------------0----------------|
   Q       Q    H


   +E    E    E    Q.    E E    E  q    Q     E    E  E
|--------4----4----4---------|--4--0--------------------|
|-(12)-(12)-(12)-(12)--------|--------------------------|
|--------------------------4-|---------/9----(9)------9-|
|------------------------4---|-------------------<12>---|
|---------------------4------|-(4)-----------10---------|
|-<12>-----------------------|------------10------------|
    H                 H        +E  Q.      H


  +E   E  E H         E       E   Q   Q.    E  E    +E  E E  Q.     E   E
|------------------------|------------------0-(0)-|-(0)-7p5-/7-----(7)-(7)-|
|------------------------|--------8\--3-----0-(0)-|-(0)-7p5-/7-----(7)-(7)-|
|-(9)-------9------------|----9----------------0--|-(0)-------------7--(7)-|
|--------12---------<12>-|-(<12>)-----------------|---------------------0--|
|-----10-----------------|---------------0--------|--0---------------------|
|-10----------10---------|------------------------|-------------0----------|
   H           Q.     E       Q.      E  H           H          H


  +E  E E  Q.     E   E     E   E   E  Q.    E E   +E  Q  Q    E   Q
|-(7)-5p4-/5-----(5)-(5)-|--2--/4---5--0---------|-------------0--(0)--|
|-(7)-5p3-/5-----(5)-(5)-|--1--/3---5------------|-----0---------------|
|-(7)-------------5--(5)-|---------------------5-|-(5)-------------5---|
|-(0)-----------------0--|-(0)-(0)-(0)-------5---|--------5---(5)-(5)--|
|-------------0----------|--0-------------4------|-(4)------5----------|
|--0---------------------|-----------------------|---------------------|
   H          H             H             H        +H       H


  +E  E E  Q.     E   E    +E  E E  Q.     E   E     E   E   E   Q     E  E E
|-(0)-7p5-/7-----(7)-(7)-|-(7)-5p4-/5-----(5)-(5)-|--2--/4---5--10---(10)-7---|
|-----7p5-/7-----(7)-(7)-|-(7)-5p3-/5-----(5)-(5)-|--1--/3---5----------------|
|-(5)-------------7--(7)-|-(7)-------------5--(5)-|--------------------7----7-|
|---------------------0--|-(0)-----------------0--|-(0)-(0)-(0)---------------|
|-(5)--------------------|-------------0----------|--0-------------0----------|
|-------------0----------|--0---------------------|---------------------------|
  +E  Q.      H             H          H             H             H


   E   E   E   Q   E   E   E    +E   Q   Q   E E E   +Q   E Q    E   E   E
|-10-(10)--7--/9-------------|-------------------0-|-(0)--0-0---(0)-(0)--0--|
|-------------/8----------10-|-(10)-\8--/8-------7-|-(7)--------------------|
|------7--(7)--------<12>----|-----------------5---|------------------------|
|------------------0---------|---------------5-----|------------/5---5--(5)-|
|--0-------------0-----------|---0---------5-------|--5-------0-------------|
|----------------------------|---------------------|------0-----------------|
   H             H               H         H          Q   Q   H


                                              To Coda
  +E  E E E E  E  E E   +E  E  E Q    E  E E   +H       E E E E
|-(0)---------------0-|-(0)--------------0---|------------------|
|-------0h1-2-(2)-----|-------/5-5---(5)---3-|-(3)--------------|
|-----------------0---|---------------0------|----------------5-|
|-(5)-5--------2------|-----2----------------|--------------4---|
|--0--------2---------|--2---------5---------|--5----/7---7-----|
|---------------------|----------------------|----------0-------|
   H        H            H         H            Q.    E H


D.S. al Coda&
 2/4                 7/8
  +Q.   E   E E E E   +Q   Q    Q   E
|---------|---------|-----------------|
|---------|---------|------0---(0)--0-|
|-(5)-----|-------5-|-(5)-------------|
|-------5-|-----4---|-----------7-----|
|---------|---7-----|-----------0-----|
|---------|-0-------|-----------------|
   H        H          Q.    E  Q.


 4/4
   Q       E    Q.         E   E    Q.    E Q.     E
|-------------<12>------(<12>)---|-------------------|
|-(0)----------------------------|--0--------------0-|
|-------------<12>------(<12>)-5-|-------------------|
|-/9-----------------------5-----|--------7-7--------|
|-(0)-0------------0-5-----------|-(5)-5-------0-----|
|--------<12>--------------------|-------------------|
  +E  Q.           E Q.            +E  H       Q.


   Q       E    Q.         E   E
|-------------<12>------(<12>)----|
|-(0)-----------------------------|
|-------------<12>------(<12>)-5--|
|-/9-----------------------5------|
|-(0)-0------------0-5------------|
|--------<12>---------------------|
  +E  Q.           E Q.


   Q.    E Q.     E    Q       E    Q.         E   E    H      Q    E E
|-------------------|-------------<12>------(<12>)---|------------------|
|--0--------------0-|-(0)----------------------------|--0---------------|
|-------------------|-------------<12>------(<12>)-5-|------------------|
|--------7-7--------|-/9-----------------------5-----|---------4------4-|
|-(5)-5-------0-----|-(0)-0------------0-5-----------|-(5)-5--------7---|
|-------------------|--------<12>--------------------|-----------0------|
  +E  H       Q.      +E  Q.           E Q.            +E  H     Q.


 5/8          4/4
   H      E    +E  E E E   E   E  E E    H..       E
|------------|---------0--(0)-(0)-0-0-|-(0)----------|
|------------|------------------------|--------------|
|--5---------|------------------------|--------------|
|---------5--|-(5)-5-5-5---5---5------|--4---------5-|
|------------|--0------0--------------|--------------|
|-(0)----(0)-|--------------------2---|--0-----------|
  +H     +E     Q.     Q.         Q      W


  +E  E E E   E   E  E E    E H..         +W
|---------0--(0)-(0)-0-0-|-(0)----------|--------*|
|------------------------|--------------|--------*|
|------------------------|--------------|--------*|
|-(5)-5-5-5---5---5------|--4p0---------|-(0)----*|
|--0------0--------------|--------------|--------*|
|--------------------2---|--0-----------|-(0)----*|
   Q.     Q.         Q      W             +W



Duration Legend
---------------
W - whole; H - half; Q - quarter; E - 8th; S - 16th; T - 32nd; X - 64th; a - acciaccatura
+ - note tied to previous; . - note dotted; .. - note double dotted
Uncapitalized letters represent notes that are staccato (1/2 duration)
Irregular groupings are notated above the duration line
Duration letters will always appear directly above the note/fret number it represents the
duration for.  Duration letters with no fret number below them represent rests.  Multi-
bar rests are notated in the form Wxn, where n is the number of bars to rest for.  Low
melody durations appear below the staff

Tablature Legend
----------------
 h   - hammer-on
 p   - pull-off
 b   - bend
 pb  - pre-bend
 r   - bend release (if no number after the r, then release immediately)
 /\  - slide into or out of (from/to "nowhere")
 s   - legato slide
 S   - shift slide
 - natural harmonic
[n]  - artificial harmonic
n(n) - tapped harmonic
 ~   - vibrato
 tr  - trill
 T   - tap
 TP  - trem. picking
 PM  - palm muting
\n/  - tremolo bar dip; n = amount to dip
 \n  - tremolo bar down
 n/  - tremolo bar up
/n\  - tremolo bar inverted dip
 =   - hold bend; also acts as connecting device for hammers/pulls
 <> - volume swell (louder/softer)
 x   - on rhythm slash represents muted slash
 o   - on rhythm slash represents single note slash

Misc Legend
-----------
 |  - bar
||  - double bar
||o - repeat start
o|| - repeat end
*|  - double bar (ending)
 :  - bar (freetime)
 $  - Segno
 &  - Coda
Tempo markers -  = BPM(8/16=s8/s16), where s8 = swing 8ths, s16 = swing 16ths

Tap to rate this tab
# A B C D E F G H I J K L M N O P Q R S T U V W X Y Z