Song name
# A B C D E F G H I J K L M N O P Q R S T U V W X Y Z

Benny Benassi - Satisfaction tab

NOTE: Well, this song isn't played on a guitar (or on any other physical instrument for 
matter), but it sounds pretty cool if you use a kill switch, slide, and wah pedal.

-------------------------------------------------------------------------------
			     SATISFACTION - Benny Benassi
-------------------------------------------------------------------------------
Tabbed by: OXXOI777777
Email: OXXOI777777@gmail.com

Tuning: Standard

| t    tap kill switch
| h/r  hold/release kill switch
| /    slide up
| \    slide down

e|---------------------------|
B|---------------------------|
G|---------------------------|
D|---------------------------|
A|---------------------------|
E|------------13-t-13-t-13---|

e|---------------------------------------------------------------------------|
B|---------------------------------------------------------------------------|
G|---------------------------------------------------------------------------|
D|---------------------------------------------------------------------------|
A|---------------------------------------------------------------------------|
E|-12---------------\7-------0---------------h------------r---13-k-13-k-13---|

e|---------------------------------------------------------------------------|
B|---------------------------------------------------------------------------|
G|---------------------------------------------------------------------------|
D|---------------------------------------------------------------------------|
A|---------------------------------------------------------------------------|
E|-12---------------\7-------12-------/13-------12-------13-t-13-t-12-t-12-t-|

e|---------------------------------------------------------------------------|
B|---------------------------------------------------------------------------|
G|---------------------------------------------------------------------------|
D|---------------------------------------------------------------------------|
A|---------------------------------------------------------------------------|
E|-12---------------\7-------0---------------h------------r---13-k-13-k-13---|

|----------------------------------------------------------------------------|
B|---------------------------------------------------------------------------|
G|---------------------------------------------------------------------------|
D|---------------------------------------------------------------------------|
A|---------------------------------------------------------------------------|
E|-12---------------\7-------12-------/13-------12-------13-t-13-t-13-t-13-t-|
Tap to rate this tab
 
# A B C D E F G H I J K L M N O P Q R S T U V W X Y Z