Song name
# A B C D E F G H I J K L M N O P Q R S T U V W X Y Z

Benoit Pioulard - Until Then tab

-------------------------------------------------------------------------------
			     Until Then - Benoit Pioulard & Rafael Anton Irisarri
-------------------------------------------------------------------------------

Basically the same riff goes through the whole song. It's played on the piano, but I've 
transcribed it to guitar.
The song is in C#m, so if you need, you can easily transcribe it back to piano.
If you have any more questions (I highly doubt that), just email me.

Tabbed by: MotasR
Email: MailOfMotas@gMail.com

Tuning: EADGBe

e|-----------------------------------------------------------------------------|
B|-----14----------------------------------------------------------------------|
G|-----------------12----------------------------------------------------------|
D|----------14-------13-14-----------------------------------------------------|
A|--16---16--------------------------------------------------------------------|
E|-----------------------------------------------------------------------------|
Tap to rate this tab
 
# A B C D E F G H I J K L M N O P Q R S T U V W X Y Z