Song name
# A B C D E F G H I J K L M N O P Q R S T U V W X Y Z

Bent Fabricius Bjerre - Norwegian Sunset tab

Find the song on Youtube and listen to it, it is very beautiful.
from the movie Flåklypa Grand Prix.
my first tab

E-0-5-7-8-7-5-3-0-------------------------|
H-----------------1-3-5-6-5-3-1-3-5-3-1-0-|
G-----------------------------------------|
D-----------------------------------------|
A-----------------------------------------|
E-----------------------------------------|


E-----------------------5-5-3-1-0-------|
H-0-3-5-3-1-0----------------------1----|
G--------------2-1-2-2----------------2-|
D---------------------------------------|
A---------------------------------------|
E---------------------------------------|


E---------0-1-0-----5-5-3-1-0----------------1-0---0-|
H-0-1-3---------3-1------------1-------0-1-3-----3---|
G---------------------------------2------------------|
D----------------------------------------------------|
A----------------------------------------------------|
E----------------------------------------------------|


-----------------------------------------------------------------------------
http://www.bentfabricius-bjerre.dk/
Tap to rate this tab
# A B C D E F G H I J K L M N O P Q R S T U V W X Y Z