Song name
# A B C D E F G H I J K L M N O P Q R S T U V W X Y Z

Bentall Barney - Do Ya tab

Help us improve GuitareTab! Take a short survey!
McFly
Do Ya
Radio:ACTIVE
Tuning: Standart
All chords are power chords.


VERSE 1
                  G
Do ya do ya do ya love me?
                     Em
Do you need a little time?
                  C
Do ya do ya do ya want me
                     D
To hold you when you cry?
                        G
Do ya do ya do ya do ya love me?
                         E
Don't wanna hear you say maybe

e|-----------------------|
B|-----------------------|
G|--9-7-4----------------|
D|-----------------------|
A|----------0-2-3-4-5-5--|
E|-----------------------|

           C                  D
Won't you tell me do you love me?
                 G
'Cause i wanna know

e|--13b15r13---------------13b15r13----------------|
B|------------15p13-12-12-----------15p13-13-15~~--|
G|-------------------------------------------------|
D|-------------------------------------------------|
A|-------------------------------------------------|
E|-------------------------------------------------|


BRIDGE
C
I'm making a list of things that I miss whenever we're far apart
Cm
The way that you kiss, the taste of your lips, I'm telling you from the heart
      G
Cause baby
             D     D#
I just wanna know


VERSE 2
                  G#
Do ya do ya do ya love me? (Do ya love me? Cause I wanna know)
                       Fm
Do you feel it in your bones? (Do ya love me? Cause I wanna know)
                    C#
Do ya do ya dream about me (Do ya love me? Cause I wanna know)
                                 D#
Oh, when you're sleeping on your own? (Do ya love me? Cause I wanna know)
                        G#
Do ya do ya do ya do ya love me? (Do ya love me? Causa I wanna know)
                         F
Don't wanna hear you say maybe (Do ya love me? Cause I wanna know)

e|-----------------------|
B|-----------------------|
G|--10-8-5---------------|
D|-----------------------|
A|----------1-3-4-5-6-6--|
E|-----------------------|

C#                        D#
Won't you tell me, do you love me?
                  G#
Cause I wanna know

e|----------4------------8-6~~--|
B|--------4-4-------------------|
G|--5-6-7-----5--5-6-7-8--------|
D|------------------------------|
A|------------------------------|
E|------------------------------|


BRIDGE
C#
I'm making a list of things that I miss whenever we're far apart
C#m
The way that you kiss, the taste of your lips, I'm telling you from the heart
G#
Cause baby
               D#   E
I just wanna know


VERSE 3
                  A
Do ya do ya do ya love me? (Do ya love me? Causa I wanna know)
Do you need a little time? (Do ya love me? Causa I wanna know)
Do ya do ya do ya want me (Do ya love me? Causa I wanna know)
                     E
To hold you when you cry? (Do ya love me? Causa I wanna know)
                        A
Do ya do ya do ya do ya love me? (Do ya love me? Causa I wanna know)
                         F#
Don't wanna hear you say maybe (Do ya love me? Cause I wanna know)

e|-----------------------|
B|-----------------------|
G|--11-9-6---------------|
D|-----------------------|
A|----------2-4-5-6-7-7--|
E|-----------------------|
          D               E
Won't you tell me, do you love me?
              A
Cause I wanna know, yeah

e|--------------------------------------|
B|--8b10r-----10-10--8b10r-----10--10b--|
G|--------9-7--------------9-7----------|
D|--------------------------------------|
A|--------------------------------------|
E|--------------------------------------|


BRIDGE
D
I'm making a list of things that I miss whenever we're far apart
Dm
The way that you kiss, the taste of your lips, I'm telling you from the heart
A
Cause baby
             E     F  
I just wanna know


VERSE 4
                           A#
Do ya, do ya, do ya, do ya love me? (Do ya love me? Causa I wanna know)
                  Gm
So tell me, do ya love me? (Do ya love me? Causa I wanna know)
               D#
Show that you love me (Do ya love me? Causa I wanna know)
               F
Cause I wanna know
         A#
So do ya love me? (Do ya love me? Causa I wanna know)
                         G
Don't wanna hear you say maybe (Do ya love me? Causa I wanna know)

e|-------------------------------------------------|
B|-------------------------------------------------|
G|--12-10-7----------------------------------------|
D|-------------------------------------------------|
A|----------3-5-6-7-8-8--3-5-6-7-8-8--3-5-6-7-8-8--|
E|-------------------------------------------------|

D#                      F
Won't you tell me do you love me? 
      D#            F
Woah, do you really love me?
D# 
So tell me
                        F
Do ya do ya do ya do ya love me
                   D# 
Cause I wanna know
A#
Do ya love me? Cause I wanna know
A#
Do ya love me? Cause I wanna know

e|-------------------------------------|
B|--9b11r-----------9b11r------11--11--|
G|--------10-8-7-7--------10-8---------|
D|-------------------------------------|
A|-------------------------------------|
E|-------------------------------------|

e|--------------------------------|
B|--9b11r-----------9b11r----11~~-|
G|--------10-8-7-7--------10------|
D|--------------------------------|
A|--------------------------------|
E|--------------------------------|
Related for Do Ya tab