Song name
# A B C D E F G H I J K L M N O P Q R S T U V W X Y Z

Berman - Lost Angeles tab

http://www.randomgong.com/berman/ - link to bands website

-------------------------------------------------------------------------------
			     Lost Angeles - Berman
-------------------------------------------------------------------------------
Tabbed by: Bloodred16
Email: happytreefriends_firstblood@hotmail.com

Tuning: Drop C (CGCFAD)

Great band, great song, easy to play!!! I know Berman have 2 guitarists but it's
easy enough to play with one so here it is for one guitar!!!!

Intro
Rhy. Fig. 1 (x4){play faded} 
D|---------------------------------------------------------------------------|
A|---------------------------------------------------------------------------|
F|---------------------------------------------------------------------------|
C|0--3--0--77777777----------------------------------------------------------|
G|0--3--0--------------------------------------------------------------------|
C|0--3--0--------------------------------------------------------------------|
 
Rhy. Fig. 2
D|---------------------------------------------------------------------------|
A|---------------------------------------------------------------------------|
F|---------------------------------------------------------------------------|
C|0--3--0--77777777-------0--3--0--77778b------------------------------------|
G|0--3--0-----------------0--3--0--------------------------------------------|
C|0--3--0-----------(x3)--0--3--0--------------------------------------------|
 
Verse
           * faded to the background *           * faded to the background *
D|---------------------------------------------------------------------------|
A|---------------------------------------------------------------------------|
F|---------------------------------------------------------------------------|
C|0--3--0--77777777--0--3--0--77777777--0--3--0--77777777--0--3--0--77777777-|
G|0--3--0------------0--3--0------------0--3--0------------0--3--0-----------|
C|0--3--0------------0--3--0------------0--3--0------------0--3--0-----------|

Rhy. Fig. 1 (x3)
then this before the chorus
D|---------------------------------------------------------------------------|
A|---------------------------------------------------------------------------|
F|---------------------------------------------------------------------------|
C|0--3--0--77778888----------------------------------------------------------|
G|0--3--0--------------------------------------------------------------------|
C|0--3--0--------------------------------------------------------------------|

Chorus
D|---------------------------------------------------------------------------|
A|---------------------------------------------------------------------------|
F|---------------------------------------------------------------------------|
C|3-3-3-3-3-3-3-3-5-5-5-5-5-5-5-5-3-3-3-3-3-3-3-3-------xx-------xx----------|
G|3-3-3-3-3-3-3-3-5-5-5-5-5-5-5-5-3-3-3-3-3-3-3-3-------xx-------xx----------|
C|3-3-3-3-3-3-3-3-5-5-5-5-5-5-5-5-3-3-3-3-3-3-3-3-0h1p0-xx-0h1p0-xx-0h1p0----|

D|---------------------------------------------------------------------------|
A|---------------------------------------------------------------------------|
F|---------------------------------------------------------------------------|
C|3-3-3-3-3-3-3-3-5-5-5-5-5-5-5-5-8-8-8-8-8-8-8-8-10-10-10-10-11-11-11-11----|
G|3-3-3-3-3-3-3-3-5-5-5-5-5-5-5-5-8-8-8-8-8-8-8-8-10-10-10-10-11-11-11-11----|
C|3-3-3-3-3-3-3-3-5-5-5-5-5-5-5-5-8-8-8-8-8-8-8-8-10-10-10-10-11-11-11-11----|

Interlude - Rhy. Fig. 2
Verse 2 - Same as Verse 1
Chorus
Interlude - Rhy. Fig. 2

Bridge
Rhy. Fig. 3 (x4)
D|---------------------------------------------------------------------------|
A|---------------------------------------------------------------------------|
F|---------------------------------------------------------------------------|
C|-------7---------7777777---------------------------------------------------|
G|0h1-xx-5-------0-5555555---------------------------------------------------|
C|0h1-xx---(x3)--0-----------------------------------------------------------|
         
Chorus (x2)
Outro - Rhy. Fig. 1 (x4) followed by Rhy. Fig. 2 {so same as intro}
        the last note of Rhy. Fig. 2 (8b) hold that note!

| h  hammer-on
| p  pull-off
| b  bend
| x  Mute note
===============================================================================
Tap to rate this tab
 
# A B C D E F G H I J K L M N O P Q R S T U V W X Y Z